Song name
# A B C D E F G H I J K L M N O P Q R S T U V W X Y Z

One Night Only - Say You Dont Want It tab

-------------------------------------------------------------------------------
			     Say You Dont Want It - One Night Only
-------------------------------------------------------------------------------

Couldn't find a good tab for this great song so tabbed it up. Pretty simple to play just listen
out for the strummings/timings. The intro/pre verse can be played on the B string on
the 6th 5th 3rd 1st frets but in live videos they play it further down the fretboard. Enjoy.


Email: gez_the_best@hotmail.com

Tuning: Standard - EADGBe


Intro

play x2


e|---------------------------------------------------------------------------|
B|---------------------------------------------------------------------------|
G|---10-10-10-9-9-9-7-7-7-7-7-7-7-7-7-7-10-10-10-9-9-9-7-7-5-5-5-5-5-5-5-5---|
D|---------------------------------------------------------------------------|
A|---------------------------------------------------------------------------|
E|---------------------------------------------------------------------------|

e|---------------------------------------------------------------------------|
B|---------------------------------------------------------------------------|
G|---10-10-10-9-9-9-7-7-7-7-7-7-7-7-5-7-10-10-10-9-9-9-7-7-5-5-5-5-5-5-5-5---|
D|---------------------------------------------------------------------------|
A|---------------------------------------------------------------------------|
E|---------------------------------------------------------------------------|

Verse

No Guitar


Chorus


e|---------------------------------------------------------------------------|
B|---------------------------------------------------------------------------|
G|--9--9--9--9--9--9--9--9--4-4-4-4-4-4-4-4-7-7-7-7-7-7-7-7-2-2-2-2-2-2-2-2--|   x4
D|--10-10-10-10-10-10-10-10-5-5-5-5-5-5-5-5-8-8-8-8-8-8-8-8-3-3-3-3-3-3-3-3--|
A|--10-10-10-10-10-10-10-10-5-5-5-5-5-5-5-5-8-8-8-8-8-8-8-8-3-3-3-3-3-3-3-3--|
E|--8--8--8--8--8--8--8--8--3-3-3-3-3-3-3-3-6-6-6-6-6-6-6-6-1-1-1-1-1-1-1-1--|

Pre-Verse


e|---------------------------------------------------------------------------|
B|---------------------------------------------------------------------------|
G|---10-10-10-9-9-9-7-7-7-7-7-7-7-7-7-7-10-10-10-9-9-9-7-7-5-5-5-5-5-5-5-5---|
D|---------------------------------------------------------------------------|
A|---------------------------------------------------------------------------|
E|---------------------------------------------------------------------------|

e|---------------------------------------------------------------------------|
B|---------------------------------------------------------------------------|
G|---10-10-10-9-9-9-7-7-7-7-7-7-7-7-5-7-10-10-10-9-9-9-7-7-5-5-5-5-5-5-5-5---|
D|---------------------------------------------------------------------------|
A|---------------------------------------------------------------------------|
E|---------------------------------------------------------------------------|


Verse

No Guitar

Chorus


e|---------------------------------------------------------------------------|
B|---------------------------------------------------------------------------|
G|--9--9--9--9--9--9--9--9--4-4-4-4-4-4-4-4-7-7-7-7-7-7-7-7-2-2-2-2-2-2-2-2--|     x4
D|--10-10-10-10-10-10-10-10-5-5-5-5-5-5-5-5-8-8-8-8-8-8-8-8-3-3-3-3-3-3-3-3--|
A|--10-10-10-10-10-10-10-10-5-5-5-5-5-5-5-5-8-8-8-8-8-8-8-8-3-3-3-3-3-3-3-3--|
E|--8--8--8--8--8--8--8--8--3-3-3-3-3-3-3-3-6-6-6-6-6-6-6-6-1-1-1-1-1-1-1-1--|


Breakdown (small amount of delay on guitar)


e|-----------------------------------------------------------------------------|
B|-----------------------------------------------------------------------------|
G|-9--9--------------9--9--4-4---------4-4-7-7---------7-7-2-2---------2-2-----|
D|-10-10-------------10-10-5-5---------5-5-8-8---------8-8-3-3---------3-3-----|
A|-10-10-10-10-10-10-10-10-5-5-5-5-5-5-5-5-8-8-8-8-8-8-8-8-3-3-3-3-3-3-3-3-----|
E|-8--8--8--8--8--8--8--8--3-3-3-3-3-3-3-3-6-6-6-6-6-6-6-6-1-1-1-1-1-1-1-1-----|
     pm |-----------|      pm |-------|    pm |-------|    pm |----------------|

e|-----------------------------------------------------------------------------|
B|-----------------------------------------------------------------------------|
G|-9--9--------------9--9--4-4---------4-4-7-7---------7-7-2-------------------|
D|-10-10-------------10-10-5-5---------5-5-8-8---------8-8-3--let ring---------|
A|-10-10-10-10-10-10-10-10-5-5-5-5-5-5-5-5-8-8-8-8-8-8-8-8-3-------------------|
E|-8--8--8--8--8--8--8--8--3-3-3-3-3-3-3-3-6-6-6-6-6-6-6-6-1-------------------|
     pm |-----------|      pm |-------|    pm |--------------------------------|

Chorus


e|---------------------------------------------------------------------------|
B|---------------------------------------------------------------------------|
G|--9--9--9--9--9--9--9--9--4-4-4-4-4-4-4-4-7-7-7-7-7-7-7-7-2-2-2-2-2-2-2-2--|    x4
D|--10-10-10-10-10-10-10-10-5-5-5-5-5-5-5-5-8-8-8-8-8-8-8-8-3-3-3-3-3-3-3-3--|
A|--10-10-10-10-10-10-10-10-5-5-5-5-5-5-5-5-8-8-8-8-8-8-8-8-3-3-3-3-3-3-3-3--|
E|--8--8--8--8--8--8--8--8--3-3-3-3-3-3-3-3-6-6-6-6-6-6-6-6-1-1-1-1-1-1-1-1--|


Outro


e|---------------------------------------------------------------------------|
B|---------------------------------------------------------------------------|
G|---------------------------------------------------------------------------|   x2
D|------10-10--10-10-10-10--8-8--8-8-8-8--8-8--8-8-8-8--7-7--7-7-7-5---------|
A|---------------------------------------------------------------------------|
E|---------------------------------------------------------------------------|
Tap to rate this tab
 
# A B C D E F G H I J K L M N O P Q R S T U V W X Y Z