Song name
# A B C D E F G H I J K L M N O P Q R S T U V W X Y Z

One Night Only - Nothing Left tab

(Intro)
e|--------------------------------------------------|
B|--15-15-14-12-10-17-15-15-14-12-10-7--------------|
G|--------------------------------------------------|
D|--------------------------------------------------|
A|--------------------------------------------------|
E|--------------------------------------------------|
 
  Bass plays this for verse
G|--------------------------------------------------|
D|--------------------------------------------------|
A|----------7-7-7-7---------5-5-5-5-----------------|
E|--5-5-5-5---------3-3-3-3-------------------------|

(Pre Chorus)
e|--------------------------------------------------|
B|--------------------------------------------------|
G|--------------------------------------------------|
D|--4-4-4-4-4-7-7-7-7-7-----------------------------|
A|--2-2-2-2-2-5-5-5-5-5-7-7-7-7-7-5-5-5-5-5---------|
E|----------------------5-5-5-5-5-3-3-3-3-3---------|

(Chorus)
e|--------------------------------------------------|
B|--------------------------------------------------|
G|-4-4-4-4-4-4-4-4-4-4-7-7-7-7-7-7-7-7-7-7----------|
D|-4-4-4-4-4-4-4-4-4-4-7-7-7-7-7-7-7-7-7-7----------|
A|-2-2-2-2-2-2-2-2-2-2-5-5-5-5-5-5-5-5-5-5----------|
E|--------------------------------------------------|
e|--------------------------------------------------|
B|--------------------------------------------------|
G|-2-2-2-2-2-4-4-4-4-4-7-7-7-7-7-7-7-7-7-7----------|
D|-2-2-2-2-2-4-4-4-4-4-7-7-7-7-7-7-7-7-7-7----------|
A|-0-0-0-0-0-2-2-2-2-2-5-5-5-5-5-5-5-5-5-5----------|
E|--------------------------------------------------|


I think this is right,it's pretty close at the very least.

Tap to rate this tab
# A B C D E F G H I J K L M N O P Q R S T U V W X Y Z