Song name
# A B C D E F G H I J K L M N O P Q R S T U V W X Y Z

One Night Only - Bring Me Back Down tab

Intro:

E|----------|
B|----------|
G|-8---8-8--|
D|-8---8-8--| x2
A|-6---6-6--|
E|----------|

Verse:

E|-----------------------|
B|-----------------------|
G|-8888--5555------------|
D|-8888--5555--66666666--|
A|-6666--3333--66666666--|
E|-------------44444444--|
   ****  ****  ********

Pre-chorus:

E|------------------------|
B|------------------------|
G|--------3333------------|
D|--3333--3333--66666666--|
A|--3333--1111--66666666--|
E|--1111--------44444444--|

E|------------------------|
B|------------------------|
G|--------3---------------|
D|--3333--3-(let it ring)-|
A|--3333--1---------------|
E|--1111------------------|

Chorus:

E|----------------------|
B|----------------------|
G|-8888--5555-----------|
D|-8888--5555--88888888-|
A|-6666--3333--88888888-|
E|-------------66666666-| 

E|----------------------|
B|----------------------|
G|-666666---------------|
D|-666666--333333-------|
A|-444444--333333-------|
E|---------111111-------|

Short interlude.

Verse:

E|-----------------------|
B|-----------------------|
G|-8888--5555------------|
D|-8888--5555--66666666--|
A|-6666--3333--66666666--|
E|-------------44444444--|
   ****  ****  ********

Pre-chorus:

E|------------------------|
B|------------------------|
G|--------3333------------|
D|--3333--3333--66666666--|
A|--3333--1111--66666666--|
E|--1111--------44444444--|

E|------------------------|
B|------------------------|
G|--------3---------------|
D|--3333--3-(let it ring)-|
A|--3333--1---------------|
E|--1111------------------|

Chorus:

E|----------------------|
B|----------------------|
G|-8888--5555-----------|
D|-8888--5555--88888888-|
A|-6666--3333--88888888-|
E|-------------66666666-| 

E|----------------------|
B|----------------------|
G|-666666---------------|
D|-666666--333333-------|
A|-444444--333333-------|
E|---------111111-------|

Synth interlude.

Solo:

E|--------------------------------------------|
B|--4-6-8-6-4----4-6-8-6-4----4-6-8-6-3--4-6--|
G|--------------------------------------------|
D|--------------------------------------------| x2
A|--------------------------------------------|
E|--------------------------------------------|

Chorus:

E|----------------------|
B|----------------------|
G|-8888--5555-----------|
D|-8888--5555--88888888-|
A|-6666--3333--88888888-|
E|-------------66666666-| 

E|----------------------|
B|----------------------|
G|-666666---------------|
D|-666666--333333-------|
A|-444444--333333-------|
E|---------111111-------|
Tap to rate this tab
# A B C D E F G H I J K L M N O P Q R S T U V W X Y Z