Song name
# A B C D E F G H I J K L M N O P Q R S T U V W X Y Z

One Ok Rock - The Beginning Acoustic tab

The Beginning Acoustic Tab
One Ok Rock
Jinsei X Boku

Tabbed by Lec Segundo

Tuning: E Standard (EADGBe) 

Legend:

~ - Let Ring
x - Dead Note
X - Ghost Note

Chords Used

Am - X02210
F  - x33210 or x3321x or 133451
C  - x32010
G  - x55430 or x5534x or 320033
E  - 022100

*Strumming pattern is not accurate, listen to the song for timing & strumming
_____________________________________________________________________________

INTRO

        e|-0~-----------|
        B|-1~-----------|
        G|-2~-----------|
        D|-2~-----------|
        A|-0~-----------|
        E|--------------|

VERSE-CHORUS

        e|--0-00-0-00-0-00--0-00-0-00-0-00---|\
        B|--1-11-1-11-1-11--1-11-1-11-1-11---| \
        G|--2-22-2-22-2-22--2-22-2-22-2-22---|  \
        D|--2-22-2-22-2-22--3-33-3-33-3-33---|   \
        A|--0-00-0-00-0-00--3-33-3-33-3-33---|    \
        E|-----------------------------------|     \
                                                    >    2x
        e|--0-00-0-00-0-00--3-33-3-33-3-33---|     /
        B|--1-11-1-11-1-11--3-33-3-33-3-33---|    /
        G|--0-00-0-00-0-00--0-00-0-00-0-00---|   /
        D|--2-22-2-22-2-22--0-00-0-00-0-00---|  /
        A|--3-33-3-33-3-33--2-22-2-22-2-22---| /
        E|------------------3-33-3-33-3-33---|/

        e|-X-X-X-X-------|
        B|-X-X-X-X-------|
        G|-X-X-X-X-------|
        D|-X-X-X-X-------|
        A|-X-X-X-X-------|
        E|-X-X-X-X-------|

INTERLUDE

        e|--0-00-0-00-0-00-0-00-3-33-3-33-3--|
        B|--1-11-1-11-1-11-1-11-3-33-3-33-3--|
        G|--2-22-2-22-2-22-0-00-0-00-0-00-0--|    3x
        D|--2-22-3-33-3-33-2-22-0-00-0-00-0--|
        A|--0-00-3-33-3-33-3-33-2-22-2-22-2--|
        E|----------------------3-33-3-33-3--|

        e|-----------------------------------|
        B|--1-11-1-11-1-11-3-33-3-33-3-33-3--|
        G|--2-22-2-22-2-22-4-44-4-44-4-44-4--|
        D|--3-33-3-33-3-33-5-55-5-55-5-55-5--|
        A|--3-33-3-33-3-33-5-55-5-55-5-55-5--|
        E|-----------------------------------|

VERSE

        e|--0-00-0-00-0-00--0-00-0-00-0-00---|\
        B|--1-11-1-11-1-11--1-11-1-11-1-11---| \
        G|--2-22-2-22-2-22--2-22-2-22-2-22---|  \
        D|--2-22-2-22-2-22--3-33-3-33-3-33---|   \
        A|--0-00-0-00-0-00--3-33-3-33-3-33---|    \
        E|-----------------------------------|     \
                                                    >    2x
        e|--0-00-0-00-0-00--3-33-3-33-3-33---|     /
        B|--1-11-1-11-1-11--3-33-3-33-3-33---|    /
        G|--0-00-0-00-0-00--0-00-0-00-0-00---|   /
        D|--2-22-2-22-2-22--0-00-0-00-0-00---|  /
        A|--3-33-3-33-3-33--2-22-2-22-2-22---| /
        E|------------------3-33-3-33-3-33---|/

REFRAIN

        e|--------------------------------|
        B|-1-1-------3-3-------1-1--------|
        G|-2-2-PAUSE-4-4-PAUSE-2-2-PAUSE--|
        D|-3-3-------5-5-------3-3--------|
        A|-3-3-------5-5-------3-3--------|
        E|--------------------------------|
        
        e|------0~--0-0-0-0-0---|
        B|-----0~---0-0-0-0-0---|
        G|----1~----1-1-1-1-1---|
        D|---2~-----2-2-2-2-2---|
        A|--2~------2-2-2-2-2---|
        E|-0~-------0-0-0-0-0---|

CHORUS

        e|--0-00-0-00-0-00--0-00-0-00-0-00---|
        B|--1-11-1-11-1-11--1-11-1-11-1-11---|
        G|--2-22-2-22-2-22--2-22-2-22-2-22---|
        D|--2-22-2-22-2-22--3-33-3-33-3-33---|
        A|--0-00-0-00-0-00--3-33-3-33-3-33---|
        E|-----------------------------------|
                                              
        e|--0-00-0-00-0-00--3-33-3-33-3-33---|
        B|--1-11-1-11-1-11--3-33-3-33-3-33---|
        G|--0-00-0-00-0-00--0-00-0-00-0-00---|
        D|--2-22-2-22-2-22--0-00-0-00-0-00---|
        A|--3-33-3-33-3-33--2-22-2-22-2-22---|
        E|------------------3-33-3-33-3-33---|

        e|--0-00-0-00-0-00--0-00-0-00-0-00---|
        B|--1-11-1-11-1-11--1-11-1-11-1-11---|
        G|--2-22-2-22-2-22--2-22-2-22-2-22---|
        D|--2-22-2-22-2-22--3-33-3-33-3-33---|
        A|--0-00-0-00-0-00--3-33-3-33-3-33---|
        E|-----------------------------------|
                                              
        e|--0-00-0-00-0-00--3-33-3-33-X-XX---|
        B|--1-11-1-11-1-11--3-33-3-33-4-44---|
        G|--0-00-0-00-0-00--4-44-4-44-X-XX---|
        D|--2-22-2-22-2-22--5-55-5-55-6-66---|
        A|--3-33-3-33-3-33--5-55-5-55-6-66---|
        E|-----------------------------------|

REPEAT INTERLUDE

VERSE2

        e|--0~---------------0~--------------|
        B|--1~---------------1~--------------|
        G|--2~---------------2~--------------|
        D|--2~---------------3~--------------|
        A|--0~---------------3~--------------|
        E|-----------------------------------|
                                              
        e|--0-00-0-00-0-00--3-33-3-33-3-33---|
        B|--1-11-1-11-1-11--3-33-3-33-3-33---|
        G|--0-00-0-00-0-00--0-00-0-00-0-00---|
        D|--2-22-2-22-2-22--0-00-0-00-0-00---|
        A|--3-33-3-33-3-33--2-22-2-22-2-22---|
        E|------------------3-33-3-33-3-33---|

        e|--0-00-0-00-0-00--0-00-0-00-0-00---|
        B|--1-11-1-11-1-11--1-11-1-11-1-11---|
        G|--2-22-2-22-2-22--2-22-2-22-2-22---|
        D|--2-22-2-22-2-22--3-33-3-33-3-33---|
        A|--0-00-0-00-0-00--3-33-3-33-3-33---|
        E|-----------------------------------|
                                              
        e|--0-00-0-00-0-00--3-33-3-33-3-33---|
        B|--1-11-1-11-1-11--3-33-3-33-3-33---|
        G|--0-00-0-00-0-00--0-00-0-00-0-00---|
        D|--2-22-2-22-2-22--0-00-0-00-0-00---|
        A|--3-33-3-33-3-33--2-22-2-22-2-22---|
        E|------------------3-33-3-33-3-33---|

REPEAT REFRAIN
REPEAT CHORUS   2x

ADLIB

        e|-----------------------|
        B|-----------------------|
        G|--101010-999-----------|    3x
        D|--x-x-x--xxx-7-7-------|
        A|--8-8-8--777-7-7-(x12)-|
        E|-------------5-5-------|

        e|-------------------------|
        B|-------------------------|
        G|--4444-555-77777777777---|
        D|--xxxx-xxx-xxxxxxxxxxx---|
        A|--2222-333-55555555555---|
        E|-------------------------|

        e|-----------------------------|
        B|-----------------------------|
        G|--141414-121212--------------|
        D|--x-x-x--x-x-x--10-10--------|    2x 
        A|--121212-101010-10-10-(x12)--|
        E|----------------8--8---------|
        
        e|---------------------------------|
        B|---------------------------------|
        G|--141414-121212-5-5-------5--7~--|
        D|--x-x-x--x-x-x--x-x-(x11)-x--x~--| 
        A|--121212-101010-3-3-------3--5~--|
        E|---------------------------------|    

BRIDGE

        e|--0~----1~----0~----3~-----|
        B|--1~----1~----1~----3~-----|
        G|--2~----2~----0~----0~-----|    2x
        D|--2~----3~----2~----0~-----|
        A|--0~----3~----3~----2~-----|
        E|--------1~----------3~-----|
        
REPEAT CHORUS   2x

CHORUS2 

        e|--0-00-0-00-0-00--3-33-3-33-3-33--|
        B|--1-11-1-11-1-11--3-33-3-33-3-33--|
        G|--2-22-2-22-2-22--0-00-0-00-0-00--|
        D|--3-33-3-33-3-33--0-00-0-00-0-00--|
        A|--3-33-3-33-3-33--2-22-2-22-2-22--|
        E|------------------3-33-3-33-3-33--|
                                              
        e|--0-00-0-00-0-00--0-00-0-00-0-00--|
        B|--1-11-1-11-1-11--1-11-1-11-1-11--|
        G|--0-00-0-00-0-00--2-22-2-22-2-22--|
        D|--2-22-2-22-2-22--2-22-2-22-2-22--|
        A|--3-33-3-33-3-33--0-00-0-00-0-00--|
        E|----------------------------------|

        e|--0-00-0-00-0-00--3-33-3-33-3-33--|
        B|--1-11-1-11-1-11--3-33-3-33-3-33--|
        G|--2-22-2-22-2-22--0-00-0-00-0-00--|
        D|--3-33-3-33-3-33--0-00-0-00-0-00--|
        A|--3-33-3-33-3-33--2-22-2-22-2-22--|
        E|------------------3-33-3-33-3-33--|

        e|--0-00-0-00-0-00--1~--|
        B|--0-00-0-00-0-00--1~--|
        G|--1-11-1-11-1-11--2~--|
        D|--2-22-2-22-2-22--3~--|
        A|--2-22-2-22-2-22--3~--|
        E|------------------1~--|

OUTRO

        e|------0~----|
        B|-----1~-----|
        G|----2~------|
        D|---2~-------|
        A|--0~--------|
        E|------------|

END



Please Rate,... :D
Tap to rate this tab
# A B C D E F G H I J K L M N O P Q R S T U V W X Y Z