Song name
# A B C D E F G H I J K L M N O P Q R S T U V W X Y Z

One Ok Rock - Keep It Real tab

INTRO


e|---------------------------------------------------------------------|
B|---------------------------------------------------------------------|
G|----------7----------------------------------------------------------|
D|------7/9---9-7-9|------5--4-5-4|------------7-5-4|--------4--4/5\4--|
A|--7-7|--------------3-3----------5|------5/7-------5|--2-2|----------|
E|-------------------------------------3-3-----------------------------|


guitar 1

e|---------------------------------------------------------------------|
B|---------------------------------------------------------------------|
G|----------7----------------------------------------------------------|
D|------7/9---9-7-9|------5--4-5-4|------------7-5-4|--------4--4/5\4--|   2x
A|--7-7|--------------3-3----------5|------5/7-------5|--2-2|----------|
E|-------------------------------------3-3-----------------------------|


guitar 2

e|---------------------------------------------------------------------|
B|---------------------------------------------------------------------|
G|--9|----------------5----------------------------------7|------------|
D|--9|----------------5|---------------5|----------------7|------------|
A|--7|----------------3|---------------5|----------------5|------------|
E|-------------------------------------3-------------------------------|


e|---------------------------------------------------------------------------------|
B|---------------------------------------------------------------------------------|
G|--9|----------------5-------------------------------------------------9|---------|
D|--9|----------------5|---------------5|----------------9|-------------9|---------|
A|--7|----------------3|---------------5|----------------9|-------------7|---------|
E|-------------------------------------3|----------------7-------------------------|





e|-------------------|
B|-------------------|
G|--9-9-9|-----------|
D|--9-9-9|-----------|
A|--7-7-7|-----------|
E|-------------------|


VERSE



e|-------------------------------------------------------------|
B|-------------------------------------------------------------|
G|--9---9-x-x-9-9-x---9---9-x-x-9-9---9---9-x-x-9-9|-5|----7|--|
D|--9---9-x-x-9-9-x---9---9-x-x-9-9---9---9-x-x-9-9|-5|----7|--| 2x
A|--7---7-x-x-7-7-x---7---7-x-x-7-7---7---7-x-x-7-7|-3|----5|--|
E|-------------------------------------------------------------|



CHORUS

e|---------------------------------------------------------------------|
B|---------------------------------------------------------------------|
G|--9|----------------5----------------------------------7|------------|
D|--9|----------------5|---------------5|----------------7|------------|
A|--7|----------------3|---------------5|----------------5|------------|
E|-------------------------------------3-------------------------------|


e|---------------------------------------------------------------------|
B|---------------------------------------------------------------------|
G|--9|----------------5------------------------------------------------|
D|--9|----------------5|---------------5|----------------9|------------|
A|--7|----------------3|---------------5|----------------9|------------|
E|-------------------------------------3|----------------7|------------|


e|---------------------------------------------------------------------|
B|---------------------------------------------------------------------|
G|--9-9-9-9-9-9-9-9|--5-5-5-5-5-5-5----------------------7-7-7-7-7-7|--|
D|--9-9-9-9-9-9-9-9|--5-5-5-5-5-5-5|---5-5-5-5-5-5-5-5|--7-7-7-7-7-7|--|
A|--7-7-7-7-7-7-7-7|--3-3-3-3-3-3-3|---5-5-5-5-5-5-5-5|--5-5-5-5-5-5|--|
E|-------------------------------------3-3-3-3-3-3-3-3-----------------|

e|---------------------------------------------------------------------|
B|---------------------------------------------------------------------|
G|--9-9-9-9-9-9-9-9|--5-5-5-5-5-5-5------------------------------------|
D|--9-9-9-9-9-9-9-9|--5-5-5-5-5-5-5|---5-5-5-5-5-5-5-5|--9-9-9-9-9-9|--|
A|--7-7-7-7-7-7-7-7|--3-3-3-3-3-3-3|---5-5-5-5-5-5-5-5|--9-9-9-9-9-9|--|
E|-------------------------------------3-3-3-3-3-3-3-3|--7-7-7-7-7-7|--|



e|-------------------|
B|-------------------|
G|--5|----7|----9|---|
D|--5|----7|----9|---|
A|--3|----5|----7|---|
E|-------------------|





VERSE



e|-------------------------------------------------------------|
B|-------------------------------------------------------------|
G|--9---9-x-x-9-9-x---9---9-x-x-9-9---9---9-x-x-9-9|-5|----7|--|
D|--9---9-x-x-9-9-x---9---9-x-x-9-9---9---9-x-x-9-9|-5|----7|--| 2x
A|--7---7-x-x-7-7-x---7---7-x-x-7-7---7---7-x-x-7-7|-3|----5|--|
E|-------------------------------------------------------------|




CHORUS

e|---------------------------------------------------------------------|
B|---------------------------------------------------------------------|
G|--9|----------------5----------------------------------7|------------|
D|--9|----------------5|---------------5|----------------7|------------|
A|--7|----------------3|---------------5|----------------5|------------|
E|-------------------------------------3-------------------------------|


e|---------------------------------------------------------------------|
B|---------------------------------------------------------------------|
G|--9|----------------5------------------------------------------------|
D|--9|----------------5|---------------5|----------------9|------------|
A|--7|----------------3|---------------5|----------------9|------------|
E|-------------------------------------3|----------------7|------------|


e|---------------------------------------------------------------------|
B|---------------------------------------------------------------------|
G|--9-9-9-9-9-9-9-9|--5-5-5-5-5-5-5----------------------7-7-7-7-7-7|--|
D|--9-9-9-9-9-9-9-9|--5-5-5-5-5-5-5|---5-5-5-5-5-5-5-5|--7-7-7-7-7-7|--|
A|--7-7-7-7-7-7-7-7|--3-3-3-3-3-3-3|---5-5-5-5-5-5-5-5|--5-5-5-5-5-5|--|
E|-------------------------------------3-3-3-3-3-3-3-3-----------------|

e|---------------------------------------------------------------------|
B|---------------------------------------------------------------------|
G|--9-9-9-9-9-9-9-9|--5-5-5-5-5-5-5------------------------------------|
D|--9-9-9-9-9-9-9-9|--5-5-5-5-5-5-5|---5-5-5-5-5-5-5-5|--9-9-9-9-9-9|--|
A|--7-7-7-7-7-7-7-7|--3-3-3-3-3-3-3|---5-5-5-5-5-5-5-5|--9-9-9-9-9-9|--|
E|-------------------------------------3-3-3-3-3-3-3-3|--7-7-7-7-7-7|--|


SOLO


e|-----------------------------------------------|
B|-----------------------------------------------|
G|-----------------------------------------------|
D|-----------------------------------------------|
A|--7-7-7-9-9-9-10-10-10-12-12-12-10-10-10-9-9-9-|
E|-----------------------------------------------|



e|--------------------------------------------|
B|--------------------------------------------|
G|--------------------------------------------|
D|-----------------------9-9-9-7-7-7----------|
A|--7-7-7-9-9-9-10-10-10-------------10-10-10-|
E|--------------------------------------------|



e|---------------------------------------|
B|---------------------------------------|
G|---------------------------------------|
D|---------------------------------------|
A|--9-9-9-10-10-10-5-(5)-(5)-(5)-(5)-(5)-|
E|---------------------------------------|



e|-----------------------------------------------------------|
B|-----------------------------------------------------------|
G|-----------------------------------------------------------|
D|--------------------------12-12-12-10-10-10-12-12-12-14~~--|
A|--10-10-10-9-9-9-10-10-10----------------------------------|
E|-----------------------------------------------------------|



e|--------------------------------------|
B|--------------------------------------|
G---------------5------------------7|---|
D|----9|------5------------------7|-----|
A|--7|------3------------------5|-------|
E|---------------------3----------------|

e|----------------------------------------|
B|----------------------------------------|
G|------9|-------5-------------------7|---|
D|----9|-------5|-----------5|-----7|-----|
A|--7|-------3|-----------5|-----5|-------|
E|----------------------3-----------------|

e|-------------------------------------------|
B|-------------------------------------------|
G|------9|-------5---------------4------4|---|
D|----9|-------5|-----------5|---4------4|---|
A|--7|-------3|-----------5|-----2------2|---|
E|----------------------3--------------------|

CHORUS

e|---------------------------------------------------------------------|
B|---------------------------------------------------------------------|
G|--9|----------------5----------------------------------7|------------|
D|--9|----------------5|---------------5|----------------7|------------|
A|--7|----------------3|---------------5|----------------5|------------|
E|-------------------------------------3-------------------------------|


e|---------------------------------------------------------------------|
B|---------------------------------------------------------------------|
G|--9|----------------5------------------------------------------------|
D|--9|----------------5|---------------5|----------------9|------------|
A|--7|----------------3|---------------5|----------------9|------------|
E|-------------------------------------3|----------------7|------------|


e|---------------------------------------------------------------------|
B|---------------------------------------------------------------------|
G|--9-9-9-9-9-9-9-9|--5-5-5-5-5-5-5----------------------7-7-7-7-7-7|--|
D|--9-9-9-9-9-9-9-9|--5-5-5-5-5-5-5|---5-5-5-5-5-5-5-5|--7-7-7-7-7-7|--|
A|--7-7-7-7-7-7-7-7|--3-3-3-3-3-3-3|---5-5-5-5-5-5-5-5|--5-5-5-5-5-5|--|
E|-------------------------------------3-3-3-3-3-3-3-3-----------------|

e|---------------------------------------------------------------------|
B|---------------------------------------------------------------------|
G|--9-9-9-9-9-9-9-9|--5-5-5-5-5-5-5------------------------------------|
D|--9-9-9-9-9-9-9-9|--5-5-5-5-5-5-5|---5-5-5-5-5-5-5-5|--9-9-9-9-9-9|--|
A|--7-7-7-7-7-7-7-7|--3-3-3-3-3-3-3|---5-5-5-5-5-5-5-5|--9-9-9-9-9-9|--|
E|-------------------------------------3-3-3-3-3-3-3-3|--7-7-7-7-7-7|--|


ENDS

guitar 1


e|---------------------------------------------------------------------|
B|---------------------------------------------------------------------|
G|----------7----------------------------------------------------------|
D|------7/9---9-7-9|------5--4-5-4|------------7-5-4|--------4--4/5\4--|   2x
A|--7-7|--------------3-3----------5|------5/7-------5|--2-2|----------|
E|-------------------------------------3-3-----------------------------|


guitar 2

e|---------------------------------------------------------------------|
B|---------------------------------------------------------------------|
G|--9-9-9-9-9-9-9-9|--5-5-5-5-5-5-5----------------------7-7-7-7-7-7|--|
D|--9-9-9-9-9-9-9-9|--5-5-5-5-5-5-5|---5-5-5-5-5-5-5-5|--7-7-7-7-7-7|--|
A|--7-7-7-7-7-7-7-7|--3-3-3-3-3-3-3|---5-5-5-5-5-5-5-5|--5-5-5-5-5-5|--|
E|-------------------------------------3-3-3-3-3-3-3-3-----------------|

e|---------------------------------------------------------------------|
B|---------------------------------------------------------------------|
G|--9-9-9-9-9-9-9-9|--5-5-5-5-5-5-5------------------------------------|
D|--9-9-9-9-9-9-9-9|--5-5-5-5-5-5-5|---5-5-5-5-5-5-5-5|--9-9-9-9-9-9|--|
A|--7-7-7-7-7-7-7-7|--3-3-3-3-3-3-3|---5-5-5-5-5-5-5-5|--9-9-9-9-9-9|--|
E|-------------------------------------3-3-3-3-3-3-3-3|--7-7-7-7-7-7|--|
Tap to rate this tab
 
# A B C D E F G H I J K L M N O P Q R S T U V W X Y Z