Song name
# A B C D E F G H I J K L M N O P Q R S T U V W X Y Z

One Ok Rock - Deeper Deeper tab

One OK Rock:Deeper Deeper

Guitar
Tuning: Standard


Main-Riff

E||--------------------------|--------------------------|
B||--------------------------|--------------------------|
G||--------------------------|--------------------------|
D||--2--2--------------------|--------------------------|
A||--2--2--------------------|--------------------------|
E||--0--0--7--0--3--0--L--3--|--5--3--L--3--5--3--L--5--| x 4


Verse 1

|-------|-------|--------------------------|--------------------------|
|-------|-------|--------------------------|--------------------------|
|-------|-------|--------------------------|--------------------------|
|-------|-------|--2--2--------------------|--------------------------|
|-------|-------|--2--2--------------------|--------------------------|
|-------|-------|--0--0--7--0--3--0--L--3--|--5--3--L--3--5--3--L--5--| x 2


--------------------------|--------------------------|
--------------------------|--------------------------|
--4--4--4--6--L--L--6--7--|--L--L--7--6--L--L--6--L--|
--------------------------|--------------------------|
--------------------------|--------------------------|
--------------------------|--------------------------|


--------------------------|--------------------------|
--------------------------|--------------------------|
--------------------------|--------------------------|
--2--2--------------------|--------------------------|
--2--2--------------------|--------------------------|
--0--0--7--0--3--0--L--3--|--5--3--L--3--5--3--L--5--|


--------------------------|--------------------------|
--------------------------|--------------------------|
--4--4--4--6--L--L--6--7--|--L--L--7--6--L--L--6--L--|
--------------------------|--------------------------|
--------------------------|--------------------------|
--------------------------|--------------------------|


--------------------------|--------------------------|
--------------------------|--------------------------|
--------------------------|--------------------------|
--2--2--------------------|--------------------------|
--2--2--------------------|--2--2--2--2--2--L--L--L--|
--0--0--7--0--3--0--L--3--|--0--0--0--0--0--L--L--L--|


Chorus x4

--------------------------|--------------------------|
--------------------------|--------------------------|
--5--5--5--5--5--5--5--5--|--4--4--4--4--7--7--7--7--|
--5--5--5--5--5--5--5--5--|--4--4--4--4--7--7--7--7--|
--3--3--3--3--3--3--3--3--|--2--2--2--2--5--5--5--5--|
--------------------------|--------------------------|

--------------------------|--------------------------|
--------------------------|--------------------------|
--------------------------|--------------------------|
--2--2--2--2--2--2--2--2--|--5--5--5--5--5--5--5--5--|
--2--2--2--2--2--2--2--2--|--5--5--5--5--5--5--5--5--|
--0--0--0--0--0--0--0--0--|--3--3--3--3--3--3--3--3--|

Main-Riff x 2

--------------------------|--------------------------|
--------------------------|--------------------------|
--------------------------|--------------------------|
--2--2--------------------|--------------------------|
--2--2--------------------|--------------------------|
--0--0--7--0--3--0--L--3--|--5--3--L--3--5--3--L--5--|


Verse 2

|-------|-------|--------------------------|--------------------------|
|-------|-------|--------------------------|--------------------------|
|-------|-------|--------------------------|--------------------------|
|-------|-------|--2--2--------------------|--------------------------|
|-------|-------|--2--2--------------------|--------------------------|
|-------|-------|--0--0--7--0--3--0--L--3--|--5--3--L--3--5--3--L--5--| x 2


--------------------------|--------------------------|
--------------------------|--------------------------|
--4--4--4--6--L--L--6--7--|--L--L--7--6--L--L--6--L--|
--------------------------|--------------------------|
--------------------------|--------------------------|
--------------------------|--------------------------|


--------------------------|--------------------------|
--------------------------|--------------------------|
--------------------------|--------------------------|
--2--2--------------------|--------------------------|
--2--2--------------------|--------------------------|
--0--0--7--0--3--0--L--3--|--5--3--L--3--5--3--L--5--|


--------------------------|--------------------------|-------|-------|
--------------------------|--------------------------|-------|-------|
--4--4--4--6--L--L--6--7--|--L--L--7--6--L--L--6--L--|-------|-------|
--------------------------|--------------------------|-------|-------|
--------------------------|--------------------------|-------|-------|
--------------------------|--------------------------|-------|-------|


Chorus x4

--------------------------|--------------------------|
--------------------------|--------------------------|
--5--5--5--5--5--5--5--5--|--4--4--4--4--7--7--7--7--|
--5--5--5--5--5--5--5--5--|--4--4--4--4--7--7--7--7--|
--3--3--3--3--3--3--3--3--|--2--2--2--2--5--5--5--5--|
--------------------------|--------------------------|

--------------------------|--------------------------|
--------------------------|--------------------------|
--------------------------|--------------------------|
--2--2--2--2--2--2--2--2--|--5--5--5--5--5--5--5--5--|
--2--2--2--2--2--2--2--2--|--5--5--5--5--5--5--5--5--|
--0--0--0--0--0--0--0--0--|--3--3--3--3--3--3--3--3--|


Bridge
------------------------------|-----------------------------|
------------------------------|-----------------------------|
--14---14---14---14---14--14--|--14---14---14---14----------|
--14---14---14---14---14--14--|--14---14---14---14----------|
--12---12---12---12---12--12--|--12---12---12---12----------|
--12---12---12---12---12--12--|--12---12---12---12---12s----|

------------------------|-------------------------|
------------------------|-------------------------|
------------------------|-------------------------|
------------------------|-------------------------|
---------------5--7-----|----------5--7-----------|
--0---3---5----------0--|--3---5---------0--3~----|

------------------------------|-----------------------------|
------------------------------|-----------------------------|
--14---14---14---14---14--14--|--14---14---14---14----------|
--14---14---14---14---14--14--|--14---14---14---14----------|
--12---12---12---12---12--12--|--12---12---12---12----------|
--12---12---12---12---12--12--|--12---12---12---12---12s----|

------------------------|-------------------------|
------------------------|-------------------------|
------------------------|-------------------------|
------------------------|-------------------------|
---------------5--7-----|----------5--7-----------|
--0---3---5----------0--|--3---5---------0--3~----|

------------------------------|-----------------------------|
------------------------------|-----------------------------|
--14---14---14---14---14--14--|--14---14---14---14----------|
--14---14---14---14---14--14--|--14---14---14---14----------|
--12---12---12---12---12--12--|--12---12---12---12----------|
--12---12---12---12---12--12--|--12---12---12---12---12s----|

------------------------|-------------------------|
------------------------|-------------------------|
------------------------|-------------------------|
------------------------|-------------------------|
---------------5--7-----|----------5--7-----------|
--0---3---5----------0--|--3---5---------0--3~----|

------------------------------|------------------------------|
------------------------------|------------------------------|
--14---14---14---14---14--14--|--14---14---14---14---14--14--|
--14---14---14---14---14--14--|--14---14---14---14---14--14--|
--12---12---12---12---12--12--|--12---12---12---12---12--12--|
--12---12---12---12---12--12--|--12---12---12---12---12--12--|

------------------------------|-----------------------|
------------------------------|-----------------------|
--16---16---16---16---16--16--|-----------------------|
--16---16---16---16---16--16--|-----------------------|
--14---14---14---14---14--14--|-----------------------|
--14---14---14---14---14--14--|--7---5---3---0---3----|


Break

-----|-----|-----|-----|-----|
-----|-----|-----|-----|-----|
-----|-----|-----|-----|-----|
-----|-----|-----|-----|-----|
-----|-----|-----|-----|-----|
-----|-----|-----|-----|-----|


------------------------|------------------------|
------------------------|------------------------|
-------------7---9------|-------------7---9------|
--2---5---7--7---9---2--|--2---5---7--7---9---2--|
--2---5---7--5---7---2--|--2---5---7--5---7---2--|
--0---3---5----------0--|--0---3---5----------0--| x 6



Pre-Chorus

-----|-----|-----|-----|--------------------------|----------------------------|
-----|-----|-----|-----|--------------------------|----------------------------|
-----|-----|-----|-----|--------------------------|----------------------------|
-----|-----|-----|-----|--2--2--2--2--2--2--2--2--|--5--5--5--5--5--5--5--5----|
-----|-----|-----|-----|--2--2--2--2--2--2--2--2--|--5--5--5--5--5--5--5--5----|
-----|-----|-----|-----|--0--0--0--0--0--0--0--0--|--3--3--3--3--3--3--3--3----|

Chorus x 3

--------------------------|--------------------------|
--------------------------|--------------------------|
--5--5--5--5--5--5--5--5--|--4--4--4--4--7--7--7--7--|
--5--5--5--5--5--5--5--5--|--4--4--4--4--7--7--7--7--|
--3--3--3--3--3--3--3--3--|--2--2--2--2--5--5--5--5--|
--------------------------|--------------------------|

--------------------------|--------------------------|
--------------------------|--------------------------|
--------------------------|--------------------------|
--2--2--2--2--2--2--2--2--|--5--5--5--5--5--5--5--5--|
--2--2--2--2--2--2--2--2--|--5--5--5--5--5--5--5--5--|
--0--0--0--0--0--0--0--0--|--3--3--3--3--3--3--3--3--|



Main-Riff x 2

--------------------------|--------------------------|
--------------------------|--------------------------|
--------------------------|--------------------------|
--2--2--------------------|--------------------------|
--2--2--------------------|--------------------------|
--0--0--7--0--3--0--L--3--|--5--3--L--3--5--3--L--5--|





Tablature Legend
----------------
L - hold note
x - dead note
s - legato slide
/ -  slide into from below or out of upwards
\ -  slide into from above or out of downwards
~ - vibrato
Tap to rate this tab
# A B C D E F G H I J K L M N O P Q R S T U V W X Y Z