Song name
# A B C D E F G H I J K L M N O P Q R S T U V W X Y Z

One Ok Rock - Wherever You Are tab

I've found this on a site but the tablature wasn't there anymore... so i revised some because my 
fingers can't reach it -_-.. I also include the chords :) I hope you like it :D
It's actually my friend Jack Janani's favorite song :) so yahh :D
Name: Sajiee Roa ^__^ V
Enjoy ^__^ V :DDDD

Intro:
e|------------------------------------------|
B|------0-----0-----0--------1-----1-----1--|
G|----1-----1--------------2-----2----------|
D|------------------------------------------|
A|------------------------------------------|
E|--0-----0------0-------0-----0-------0----|
Play this^^ 2x :) For the Intro

Verses 1 and 2:
e|------------------------------------------|
B|------5-----5----5--------5------5-----5--|
G|----4-----4-------------4------4----------|
D|------------------------------------------|
A|----------------------6------6-------6----|
E|--0-----0------0--------------------------|

e|------------------------------------------|
B|------------------------------------------|
G|------6------6----6--------4------4----4--|
D|----6------6-------------4------4---------|
A|--4------4------4-------------------------|
E|-----------------------4------4------4----|

e|------------------------------------------|
B|------2------2----2--------5------5----5--|
G|----2------2-------------4------4---------|
D|------------------------------------------|
A|--0------0------0-------------------------|
E|----------------------0------0------0-----|

e|------------------------------------------|
B|------2------2----2--------4------4-------|
G|----2------2-------------4------4---------|
D|------------------------------------------|
A|--0------0------0------2------2-----------|
E|------------------------------------------|

Every Chorus:
E- B- C#m- Gm- A- Gm- A- B

Bridge:
C#m- Gm- A- E slides faster to Gm

Last Verse:(Wherever you are... hmmm)
E-B- C#m- Gm- A- Am

Lyrics:
I'm telling you
I softly whisper
Tonight tonight
You are my angel

Aishiteru yo
Futari wa hitotsu ni
Tonight tonight
I just say…

Wherever you are, I'll always make you smile
Wherever you are, I'm always by your side
Whatever you say, kimi wo omou kimochi
I promise you "forever" right now

I don't need a reason
I just want you baby
Alright alright
Day after day

Kono saki nagai koto zutto
Douka konna boku to zutto
Shinu made stay with me
We carry on…

Wherever you are, I'll always make you smile
Wherever you are, I'm always by your side
Whatever you say, kimi wo omou kimochi
I promise you "forever" right now

Wherever you are, I'll never make you cry
Wherever you are, I'll never say goodbye
Whatever you say, kimi wo omou kimochi
I promise you "forever" right now

Bokura ga deatta hi wa futari ni totte ichiban me no kinen no subeki hi da ne
Soshite kyou to iu hi wa futari ni totte niban me no kinen no subeki hi da ne

Kokoro kara aiseru hito
Kokoro kara itoshii hito
Kono boku no ai no mannaka ni wa itsumo kimi ga iru kara

Wherever you are, I'll always make you smile
Wherever you are, I'm always by your side
Whatever you say, kimi wo omou kimochi
I promise you "forever" right now

Wherever you are (3x)

WEW :)) i made this 12:21 am.. so Enjoy :D 
Tap to rate this tab
# A B C D E F G H I J K L M N O P Q R S T U V W X Y Z