Song name
# A B C D E F G H I J K L M N O P Q R S T U V W X Y Z

One Pedaled Bike - Rain Maiden tab

Artist: One Pedaled Bike
Title: Rain Maiden
Tabbed by: JizyJSE

Standard Tuning


		    A     D     E     D

                E---5-----5-----7-----5------|
                B---5-----7-----9-----7------|
Verse/Intro:    G---6-----7-----9-----7------|
                D---7-----7-----9-----7------|
                A---7-----5-----7-----5------|
                E---5------------------------|

		    A     E    F#m    D

                E---5-----7-----2-----5------|
                B---5-----9-----2-----7------|
Chorus:         G---6-----9-----2-----7------|
                D---7-----9-----4-----7------|
                A---7-----7-----4-----5------|
                E---5-----------2------------|

One Pedaled Bike's got some good stuff,
check em out http://www.geocities.com/onepedaledbike/

	- Jesse Kane-Hartnett 2002
Tap to rate this tab
# A B C D E F G H I J K L M N O P Q R S T U V W X Y Z