Song name
# A B C D E F G H I J K L M N O P Q R S T U V W X Y Z

One Republic - Secrets tab

Hi..its my first time to create a tab..this song is "Secret" by One Republic.
Its so easy..

Standard Tuning(no capo)

 
Basic Chords: D,F#m,Bm and G


Tab for D chord:

e|------------------------------|----------------------------------|
b|------------------------------|----------------------------------|
g|---------2-----2--------------|---------2------2-----------------|
d|-----4-----4-----4-------4----|-----4-----4-------4------4-------|
a|-5--------------------5-------|-5---------------------5----------|
E|------------------------------|----------------------------------|




Tab for F#m chord:

e|------------------------------|----------------------------------|
b|------------------------------|----------------------------------|
g|---------2------2-------------|--------2------2------------------|
d|-----4------4------4-----4----|-----4-----4------4--------4------|
a|-4--------------------4-------|-4---------------------4----------|
E|------------------------------|----------------------------------|




Tab for Bm chord:

e|------------------------------|----------------------------------|
b|------------------------------|----------------------------------|
g|---------4------4-------------|---------4--------4---------------|
d|-----4------4------4------4---|-----4-------4--------4-------4---|
a|-2--------------------2-------|-2------------------------2-------|
E|------------------------------|----------------------------------|





Tab for G chord:

e|------------------------------|----------------------------------|
b|------------------------------|----------------------------------|
g|---------4-------4------------|---------4------4-----------------|
d|-----0-------0------0-----0---|-----0------0-------0------0------|
a|------------------------------|----------------------------------|
E|-3---------------------3------|-3---------------------3----------|






and that's all for the tab...check out next time for the adlib tab...

Big Shout Out and Credits to: Mr. Teague Purtell..


For any Question just send me an email @ itsmejoe0218@gmail.com.

TNX MUCH AND HOPE U ENJOYED IT..:)
Tap to rate this tab
# A B C D E F G H I J K L M N O P Q R S T U V W X Y Z