Song name
# A B C D E F G H I J K L M N O P Q R S T U V W X Y Z

One Sonic Society - God You Are My God tab

God, You Are My God
One Sonic Society
Forever Reign [2011]


Intro:

First Guitar(continues through verses):
      Am7            Fmaj          Cmaj           B/C

e|----3-------3-------3-------3-------3-------3-------3-------3------|
b|--1---1---1---1---1---1---1---1---1---1---1---1---1---1---1---1----|
g|-------------------------------------------------------------------|
d|2-------2-------3-------3------------------------------------------|
a|--------------------------------3-------3-------2-------2----------|
E|-------------------------------------------------------------------|

Verse 1:

No praise can define You
No thought can contain You God
No other one is Holy
No other one is robed in righteousness

Chorus:

First Guitar:
   C                              G
e|----3-------3-------3-------3-------3-------3-------3-------3------|
b|--1---1---1---1---1---1---1---1---1---1---1---1---1---1---1---1----|
g|-------------------------------------------------------------------|
d|-------------------------------------------------------------------|
a|3-------3-------3-------3------------------------------------------|
E|--------------------------------3-------3-------3-------3----------|
   Am                             F
e|----3-------3-------3-------3-------3-------3-------3-------3------|
b|--1---1---1---1---1---1---1---1---1---1---1---1---1---1---1---1----|
g|-------------------------------------------------------------------|
d|--------------------------------3-------3-------3-------3----------|
a|0-------0-------0-------0------------------------------------------|
E|-------------------------------------------------------------------|

C                            G
God You are my God
Am
Glorious
F
Glorious

Verse 2:

Second Guitar:
       C
e|--0-------0-------0-------0-----------|
b|------3-------3-------3-------3-------|
g|----5---5---5---5---5---5---5---5-----|
d|--------------------------------------|
a|--------------------------------------|
E|--------------------------------------|

No light can outshine You
No power can defeat You God
No other one is Holy
No other one is high and lifted up

Chorus:

Second Guitar:
      C                               G
e|--0-------0-------0-------0-------0-------0-------0-------0-----------|
b|------3-------3-------3-------3-------3-------3-------3-------3-------|
g|----5---5---5---5---5---5---5---5---0---0---0---0---0---0---0---0-----|
d|----------------------------------------------------------------------|
a|----------------------------------------------------------------------|
E|----------------------------------------------------------------------|
      Am                              F
e|--0-------0-------0-------0-------1-------1-------1-------1-----------|
b|------1-------1-------1-------1-------1-------1-------1-------1-------|
g|----2---2---2---2---2---2---2---2---2---2---2---2---2---2---2---2-----|
d|----------------------------------------------------------------------|
a|----------------------------------------------------------------------|
E|----------------------------------------------------------------------|

C                            G
God You are my God
Am
Glorious
F
Glorious
C                            G
God You are my God
Am
Victorious
F
Victorious

Bridge:

G                Am
From the dawn of time You reign
       F
To the end of days You're the God who saves, Sing                  x2
G                  Am
All the earth will shout Your praise
         F
You will never change You're the God who saves, Sing 

Chorus:    x3

Bridge:     x2

Chorus:   x1 fade out 
Tap to rate this tab
 
# A B C D E F G H I J K L M N O P Q R S T U V W X Y Z