Song name
# A B C D E F G H I J K L M N O P Q R S T U V W X Y Z

One Step Ahead - Oxymorons tab

One Step Ahead - Oxymorons
Submitted By: Ryan Sabine
EMail: sabiner5@aol.com


Tuning: Standard (E A D G B E)
E|--77---------------------intro----------------------------------------------------||
B|--77-------------------------------------------------------------------------||
G|-------7-5--------------------------------------------------------------------||
D|-----------7-5-7-5-7--5---5-7------------------------------------------------------||
A|------------------------7---------------------------------------------------||
E|---------------------------------------------------------------------------||

E|-------------------------pre-verse-------------------------------------------||
B|---------------------------------------------------------------------------||
G|---------------------------------------------------------------------------||
D|---------------------------------------------------------------------------||
A|--7-7-7-7-7-7-7-7--9-9-9-9-9-9-9-9--4-4-4-4-4-4-4-4-4-4-4--6----------------|
E|--5-5-5-5-5-5-5-5--7-7-7-7-7-7-7-7--2-2-2-2-2-2-2-2-2-2-2--4-x2------------||

E|-------------------------verse--------------------------------------------------||
B|---------------------------------------------------------------------------||
G|---------------------------------------------------------------------------||
D|---------------------------------------------------------------------------||
A|--7-----------9-----------4------------6------------------------------------||
E|--5-x8-muted--7-x8-muted--2-x11-muted--4--------------------------------------||

E|-----------------------chorus----------------------------------------------------||
B|---------------------------------------------------------------------------||
G|---------------------------------------------------------------------------||
D|---------------------------------------------------------------------------||
A|--7--7--7--7---9--9--9--9---4--4--4--4--4--4--4---6--------------------------||
E|--5--5--5--5---7--7--7--7---2--2--2--2--2--2--2---4-----------------------------||E|------------------bridge---------------------------------------------------------||
B|---------------------------------------------------------------------------||
G|---------------------------------------------------------------------------||
D|---------------------------------------------------------------------------||
A|--7-5-----7-9-----2-4-----2-4-----66------------------------------------------||
E|------5-------9-------4-------4---66---------------------------------------------||

intro
pre-verse
verse
chorus
pre-verse
verse
chorus
bridge
chorus
pre-verse (fade out)
Tap to rate this tab
# A B C D E F G H I J K L M N O P Q R S T U V W X Y Z