Song name
# A B C D E F G H I J K L M N O P Q R S T U V W X Y Z

One Step Beyond - This Time Its For Real tab

Rhythm Guitar-James

Intro:
D#|------------------------------------------|
A#|------------------------------------------|
F#|------------------------------------------| x2
C#|-0-----------8----------------------------|
G#|-0-----------8----------------------------|
C#|-0-----------8----------------------------|

D#|------8------------8----8-----------8------------------|
A#|-----10-10----------10---10--------10-10---------------|
F#|-----10--------------10---10-------10------------------| x3
C#|-0-----------8-----------------0-----------8-----------|
G#|-0-----------8-----------------0-----------8-----------|
C#|-0-----------8-----------------0-----------8-----------|

D#|---------------------------------------|
A#|---------------------------------------|
F#|---------------------------------------|x2
C#|-0-0---0-0-0----8-8---8-8-8------------|
G#|-0-0---0-0-0----8-8---8-8-8------------|
C#|-0-0---0-0-0----8-8---8-8-8------------|

D#|--------------------------------------|
A#|--------------------------------------|
F#|--------------------------------------|
C#|-0-0---0-0-0----8-8---8-8-8-----------|
G#|-0-0---0-0-0----8-8---8-8-8-----------|
C#|-0-0---0-0-0----8-8---8-8-8-----------|

D#|----------------------------------------------------|
A#|----------------------------------------------------|
F#|----------------------------------------------------|
C#|-10-10-10-10-10-10-10-10-10-10-10-10-10-10-10-10----|
G#|-10-10-10-10-10-10-10-10-10-10-10-10-10-10-10-10----|
C#|-10-10-10-10-10-10-10-10-10-10-10-10-10-10-10-10----|

Verse:
D#|-------------------------------------|
A#|-------------------------------------|
F#|-------------------------------------|
C#|-0-0-0-0-0-0-0-0--8-8-8-8-8-8-8-8----|
G#|-0-0-0-0-0-0-0-0--8-8-8-8-8-8-8-8----|
C#|-0-0-0-0-0-0-0-0--8-8-8-8-8-8-8-8----|
         .................................................................
D#|--------------------------------------------------|
A#|--------------------------------------------------|
F#|--------------------------------------------------|      Repeat whole verse
C#|-10-10-10-10-10-10-10-10-10-10-10-10-10-10-10-10--|                     x4
G#|-10-10-10-10-10-10-10-10-10-10-10-10-10-10-10-10--|
C#|-10-10-10-10-10-10-10-10-10-10-10-10-10-10-10-10--|
      ......................................................................................

Pre Chorus:
D#|--------------------------------------|
A#|--------------------------------------|
F#|--------------------------------------|
C#|-0-0-0-0-0-0-0-0---3-3-3-3-7-7-7-7----|
G#|-0-0-0-0-0-0-0-0---3-3-3-3-7-7-7-7----|
C#|-0-0-0-0-0-0-0-0---3-3-3-3-7-7-7-7----|

D#|--------------------------------------|
A#|--------------------------------------|
F#|--------------------------------------|
C#|-0-0-0-0-0-0-0-0---3-3-3-3-8-8-7-7----|
G#|-0-0-0-0-0-0-0-0---3-3-3-3-8-8-7-7----|
C#|-0-0-0-0-0-0-0-0---3-3-3-3-8-8-7-7----|

D#|----------------------------------------------------------------------- ---|
A#|----------------------------------------------------------------------- ---|
F#|---------------------------------------------------------------------------|
C#|-0-0-0-0-0-0-0-0-3-3-3-3-7-7-7-7-8-8-8-8-8-8-8-8-10-10-10-10-10-10-10-10---|
G#|-0-0-0-0-0-0-0-0-3-3-3-3-7-7-7-7-8-8-8-8-8-8-8-8-10-10-10-10-10-10-10-10---|
C#|-0-0-0-0-0-0-0-0-3-3-3-3-7-7-7-7-8-8-8-8-8-8-8-8-10-10-10-10-10-10-10-10---|

Chorus:
D#|-------------------------------------|
A#|-------------------------------------|
F#|-------------------------------------|
C#|-0-0-0-0-0-0-0-0--8-8-8-8-8-8-8-8----|
G#|-0-0-0-0-0-0-0-0--8-8-8-8-8-8-8-8----|
C#|-0-0-0-0-0-0-0-0--8-8-8-8-8-8-8-8----|

D#|-------------------------------------------------|
A#|-------------------------------------------------|
F#|-------------------------------------------------|      Repeat whole part
C#|10-10-10-10-10-10-10-10-10-10-10-10-10-10-10-10--|                     x2
G#|10-10-10-10-10-10-10-10-10-10-10-10-10-10-10-10--|
C#|10-10-10-10-10-10-10-10-10-10-10-10-10-10-10-10--|

D#|--------------------------------------------------------------------|
A#|--------------------------------------------------------------------|
F#|--------------------------------------------------------------------|
C#|-0-0-0-0--0-0---8-8-8-8--8-8---3-3-3-3--3-3---10-10-10-10--10-10----|
G#|-0-0-0-0--0-0---8-8-8-8--8-8---3-3-3-3--3-3---10-10-10-10--10-10----|
C#|-0-0-0-0--0-0---8-8-8-8--8-8---3-3-3-3--3-3---10-10-10-10--10-10----|

D#|----------------------------------------------------------|
A#|------------------------------------------------------ ---|
F#|----------------------------------------------------------|
C#|-0-0-0-0--0-0---8-8-8-8--8-8---10-10-10-10-10-10-10-10----|
G#|-0-0-0-0--0-0---8-8-8-8--8-8---10-10-10-10-10-10-10-10----|
C#|-0-0-0-0--0-0---8-8-8-8--8-8---10-10-10-10-10-10-10-10----|

Second Verse:
D#|-------------------------------------|
A#|-------------------------------------|
F#|-------------------------------------|
C#|-0-0-0-0-0-0-0-0--8-8-8-8-8-8-8-8----|
G#|-0-0-0-0-0-0-0-0--8-8-8-8-8-8-8-8----|
C#|-0-0-0-0-0-0-0-0--8-8-8-8-8-8-8-8----|
         .................................................................
D#|-------------------------------------------------|
A#|-------------------------------------------------|
F#|-------------------------------------------------|      Repeat whole verse
C#|10-10-10-10-10-10-10-10-10-10-10-10-10-10-10-10--|                     x4
G#|10-10-10-10-10-10-10-10-10-10-10-10-10-10-10-10--|
C#|10-10-10-10-10-10-10-10-10-10-10-10-10-10-10-10--|
      .....................................................................................

Solo/Bridge:
D#|--------------------------------------|
A#|--------------------------------------|
F#|--------------------------------------|
C#|-0-0-0-0-0-0-0-0---3-3-3-3-7-7-7-7----|
G#|-0-0-0-0-0-0-0-0---3-3-3-3-7-7-7-7----|
C#|-0-0-0-0-0-0-0-0---3-3-3-3-7-7-7-7----|

D#|--------------------------------------|
A#|--------------------------------------|
F#|--------------------------------------|
C#|-0-0-0-0-0-0-0-0---3-3-3-3-8-8-7-7----|
G#|-0-0-0-0-0-0-0-0---3-3-3-3-8-8-7-7----|
C#|-0-0-0-0-0-0-0-0---3-3-3-3-8-8-7-7----|

D#|----------------------------------------------------------------------- ---|
A#|----------------------------------------------------------------------- ---|
F#|---------------------------------------------------------------------------|
C#|-0-0-0-0-0-0-0-0-3-3-3-3-7-7-7-7-8-8-8-8-8-8-8-8-10-10-10-10-10-10-10-10---|
G#|-0-0-0-0-0-0-0-0-3-3-3-3-7-7-7-7-8-8-8-8-8-8-8-8-10-10-10-10-10-10-10-10---|
C#|-0-0-0-0-0-0-0-0-3-3-3-3-7-7-7-7-8-8-8-8-8-8-8-8-10-10-10-10-10-10-10-10---|

                                       Whole Part repeated
                                                       x5

Chorus:
D#|-------------------------------------|
A#|-------------------------------------|
F#|-------------------------------------|
C#|-0-0-0-0-0-0-0-0--8-8-8-8-8-8-8-8----|
G#|-0-0-0-0-0-0-0-0--8-8-8-8-8-8-8-8----|
C#|-0-0-0-0-0-0-0-0--8-8-8-8-8-8-8-8----|

D#|-------------------------------------------------|
A#|-------------------------------------------------|
F#|-------------------------------------------------|      Repeat whole part
C#|10-10-10-10-10-10-10-10-10-10-10-10-10-10-10-10--|                     x2
G#|10-10-10-10-10-10-10-10-10-10-10-10-10-10-10-10--|
C#|10-10-10-10-10-10-10-10-10-10-10-10-10-10-10-10--|

D#|--------------------------------------------------------------------|
A#|--------------------------------------------------------------------|
F#|--------------------------------------------------------------------|
C#|-0-0-0-0--0-0---8-8-8-8--8-8---3-3-3-3--3-3---10-10-10-10--10-10----|
G#|-0-0-0-0--0-0---8-8-8-8--8-8---3-3-3-3--3-3---10-10-10-10--10-10----|
C#|-0-0-0-0--0-0---8-8-8-8--8-8---3-3-3-3--3-3---10-10-10-10--10-10----|

D#|----------------------------------------------------------|
A#|------------------------------------------------------ ---|
F#|----------------------------------------------------------|
C#|-0-0-0-0--0-0---8-8-8-8--8-8---10-10-10-10-10-10-10-10----|
G#|-0-0-0-0--0-0---8-8-8-8--8-8---10-10-10-10-10-10-10-10----|
C#|-0-0-0-0--0-0---8-8-8-8--8-8---10-10-10-10-10-10-10-10----|

Outro
D#|---------------------------------------|
A#|---------------------------------------|
F#|---------------------------------------|x2
C#|-0-0---0-0-0----8-8---8-8-8------------|
G#|-0-0---0-0-0----8-8---8-8-8------------|
C#|-0-0---0-0-0----8-8---8-8-8------------|

D#|--------------------------------------|
A#|--------------------------------------|
F#|--------------------------------------|
C#|-0-0---0-0-0----8-8---8-8-8-----------|
G#|-0-0---0-0-0----8-8---8-8-8-----------|
C#|-0-0---0-0-0----8-8---8-8-8-----------|

D#|----------------------------------------------------|
A#|----------------------------------------------------|
F#|----------------------------------------------------|
C#|-10-10-10-10-10-10-10-10-10-10-10-10-10-10-10-10----|
G#|-10-10-10-10-10-10-10-10-10-10-10-10-10-10-10-10----|
C#|-10-10-10-10-10-10-10-10-10-10-10-10-10-10-10-10----|
Tap to rate this tab
 
# A B C D E F G H I J K L M N O P Q R S T U V W X Y Z