One The Juggler - Enjoy Yourself tab

One the Juggler
Enjoy yourself
(From the LP "Nearly a sin")

Tabbed by kayoo~ (karlhutter@hotmail.com)
Have fun playing :)

Standard Tuning EADGBe

 /5 = slide up| 5\ = slide down| ho7 = hammer on| 7po6 = pull off|
 8~ = vibrato| 



| part a                                         2x |
|---------------------------------------------------|
|---------------------------------------------------|
|--/9-8-------/9-8-------/9~-8----------------------|
|-------9-6~\------9-6~\-------9~-6-7po6-7po6-------|
|---------------------------------------------7-7~--|
|---------------------------------------------------|


| part b                                                         2x |
|-------------------------------------------------------------------|
|-------------------------------------------------------------------|
|-------------------------------------------------------------------|
|-------6-6-7-7-9-11------6-6-7-7-9-11------6-6-7-7-9-11-7po6-------|
|--/7-7--------------/7-7--------------/7-7-------------------7-7~--|
|-------------------------------------------------------------------|


| part c                                                                  2x |
|----------------------------------------------------------------------------|
|----------------------------------------------------------------------------|
|--9-------9-------9--------9-------9-------9---9-------9-------9------------|
|-----------------------------------------------------------------7po6-------|
|----ho7-7---ho7-7---ho7--7---ho7-7---ho7-7---7---ho7-7---ho7-7--------7-7~--|
|----------------------------------------------------------------------------|


> part a 

http://www.onethejuggler.co.uk/
Tap to rate this tab
 
# A B C D E F G H I J K L M N O P Q R S T U V W X Y Z