Song name
# A B C D E F G H I J K L M N O P Q R S T U V W X Y Z

One Way System - Give Us A Future tab

Give Us A Future - One Way System

http://onewaysystem.co.uk/

Intro/Pre-Chorus
e|--------------------------------------------|
B|--------------------------------------------|
G|--------------------------------------------|
D|-9-------9-9-------9-9-------9-9-------9-9--|
A|-7-77777-7-7-77777-7-7-77777-7-7-77777-7-7--|
E|-0-------0-0-------0-0-------0-0-------0-0--|
PM   .....     .....     .....     .....

Verse
e|------------------------------------|
B|------------------------------------|
G|--9-9-9-9-9-9-9-9--5-5-5-5----------|
D|--9-9-9-9-9-9-9-9--5-5-5-5-5-5-5-5--|
A|--7-7-7-7-7-7-7-7--3-3-3-3-5-5-5-5--|
E|---------------------------3-3-3-3--|

Chorus
e|--------------------------------------------------------------------|
B|--------------------------------------------------------------------|
G|-1010101010101010----------------------------------8-8-8-8-8-8-8-8--|
D|-1010101010101010-1010101010101010-6-6-6-6-6-6-6-6-8-8-8-8-8-8-8-8--|
A|-8-8-8-8-8-8-8-8--1010101010101010-6-6-6-6-6-6-6-6-6-6-6-6-6-6-6-6--|
E|------------------8-8-8-8-8-8-8-8--4-4-4-4-4-4-4-4------------------|

Solo
e|------------------------------------------------------------------------|
B|------------------------------------------------------------------------|
G|------------------------------------------------------------------------|
D|--------------------10---10--10-----------------1010-88-----------------|
A|--88--10--11--8--8----8----8-----88--10--11--8----------1111-1010-(8~)--|
E|------------------------------------------------------------------------|

it goes somethin along the lines of...

Intro
verse
chorus
verse
chorus
intro
solo
verse
chorus
chorus
Tap to rate this tab
# A B C D E F G H I J K L M N O P Q R S T U V W X Y Z