Song name
# A B C D E F G H I J K L M N O P Q R S T U V W X Y Z

Onerepublic - Sleep tab

Help us improve GuitareTab! Take a short survey!
It's not the original one, but i think it sounds pretty good. Enjoy it (:

Guitar:

E--------------|--------------|--------------|--------------|
B--------------|--------------|--------------|--------------|
G----------2---|----------2---|----------2---|------0-----2-|      [REPEAT]
D------0-0---0-|------0-0---0-|------0-0---0-|----2-----4---|
A----2---------|----2---------|----2---------|--3-----5-----|
E--3-----------|--3-----------|--3-----------|--------------|

   1 2 3 4 5 6    1 2 3 4 5 6    1 2 3 4 5 6    1 2 3 4 5 6


Voice (at least in the Instrumental/Juno version):

E--------------|--------------|--------------|--------------|
B--------------|--------------|--------------|--------------|
G--------------|--------------|--------------|--------------|
D------0-0-----|------0-0-----|------0-0-----|--------------|
A----2---------|----2---------|----2---------|--3-2---0-----|
E--3-----------|--3-----------|--3-----------|------3-------|

   1 2 3 4 5 6    1 2 3 4 5 6    1 2 3 4 5 6    1 2 3 4 5 6


Hope you don't think i'm a total disaster :$
Related for Sleep tab