Song name
# A B C D E F G H I J K L M N O P Q R S T U V W X Y Z

Onerepublic - All The Right Moves tab

   
Intro/Verse/Chorus/ guitar and keys
   Am  G   C   F
e|-----3-------1-|
B|-1---3---1---1-|
G|-2---0---0---2-|
D|-2---0---2---3-|
A|-0---2---3---3-|
E|-----3-------1-|

Perfect for one guitar/acoustic version

Let ring for Intro/Chorus, play each 8 times for Chorus

or you can play it this way
e|------------------------------1-|
B|-1-------1-------1-------1----1-|
G|-2---0---0---2---2---0---0----2-|
D|-2---0---2---3---2---0---2----3-|
A|-0---2---3---3---0---2---3------|
E|-----3-------1-------3----------|


Cello in verse 1 x2
e|------------------------0---------|
B|-------1------------------------1-|
G|----------------0-----------------|
D|----2-----------------2-----------|
A|--0----------2------3---------3---|
E|-----------3----------------1-----|

Cello in verse 2
e|-----------------------------|
B|-10---8----------------------|
G|----------7-9-----10-9--7--5-|
D|---------------7-------------|
A|-----------------------------|
E|-----------------------------|

2.12
Guitar 1
Solo (x2) 
e|-----------12------------------------------|
B|-------13----------------------------------|
G|-12-14----------12b~\\\9---7-10-10-10-\9\7-|
D|-------------------------------------------|
A|-------------------------------------------|
E|-------------------------------------------|

Guitar 2/Keys plays the first main riff x2 or the second main riff once

Last Chorus 3.16
Lead Guitar
    x2
e|----------|----------12----------------------------------------12-----------------------------|
B|------13b-|------13-----------------------------------------13--------------------------------|
G|-9/10-----|-9/10---------12b~\\\9---7-10-10-10-\9\7---12-14--------12b~\\\9---7-10-10-10-\9\7-|
D|----------|-----------------------------------------------------------------------------------|
A|----------|-----------------------------------------------------------------------------------|
E|----------|-----------------------------------------------------------------------------------|

Outro x2
e|-----------12------------------------------|
B|-------13----------------------------------|
G|-12-14----------12b~\\\9---7-10-10-10-\9\7-|
D|-------------------------------------------|
A|-------------------------------------------|
E|-------------------------------------------|

Tap to rate this tab
# A B C D E F G H I J K L M N O P Q R S T U V W X Y Z