Song name
# A B C D E F G H I J K L M N O P Q R S T U V W X Y Z

Onerepublic - Apologize tab

Put capo on the 3rd fret.

Intro
                                                  
e-|-------------------------------------------------------------------------------------|
b-|-1--------1-----------3--------3-----------1--------1-----------3--------3-----------|
G-|-----2--------2-----------2--------2-----------0--------0-----------0---------0------|
D-|---2---2----2---2-------2---2----2---2-------2---2----2---2-------0---0-----0---0----|
A-|-0--------0-----------0--------0-----------3--------3-----------2--------2-----------|
E-|-------------------------------------------------------------------------------------|

                                               
e-|-------------------------------------------------------------------------------------|
b-|-1--------1-----------3--------3-----------1--------1-----------3--------3-----------|
G-|-----2--------2-----------2--------2-----------0--------0-----------0---------0------|
D-|---2---2----2---2-------2---2----2---2-------2---2----2---2-------0---0-----0---0----|
A-|-0--------0-----------0--------0-----------3--------3-----------2--------2-----------|
E-|-------------------------------------------------------------------------------------|
Tap to rate this tab
# A B C D E F G H I J K L M N O P Q R S T U V W X Y Z