Song name
# A B C D E F G H I J K L M N O P Q R S T U V W X Y Z

Onerepublic - Marching On tab

OneRepublic - Marchin' On

Catchy song by OneRepublic. If you like this song I suggest getting their
albums. Enjoy!

Tuning: EBGDG#E (tune the 5th (A) string down 1/2 step to G#)


E ------------------------------------------------------------------------|
B ----4---4---4---4---4---4---4---4-------4---4---4---4---4---4---4-\-2---|
G ------------------------------------------------------------------------|
D ------------------------------------------------------------------------|
G#--3---3---3---3---3---3---3---3-------0---0---0---0---0---0---0---0-----|
E ------------------------------------------------------------------------|


E --------------------------------------------------------------------0---|
B --/-4---4---4---4---4---4---4-\-2-------4---4---4---2---4---4---4-------|
G ------------------------------------------------------------------------|
D ------------------------------------------------------------------------|
G#--------------------------------------3---3---3---3---3---3---3---3-----|
E --0---0---0---0---0---0---0---0-----------------------------------------|

Repeat throughout the song. The sliding may be difficult at the start, just
listen to the song to get an idea of how it should sound.
Tap to rate this tab
 
# A B C D E F G H I J K L M N O P Q R S T U V W X Y Z