Onerepublic - Secrets tab

----------------------------------------------------------------------------
 SECRETS - OneRepublic
----------------------------------------------------------------------------

Tabbed by: Jojo Del Rosario
Email: mrbrytsyd1144@hotmail.com

INTRO:
            F
e|-------------------------------------|
B|--3----------------------------------|
G|----3---3-----3-------3--------------|
D|------2-----2-----------2---2------3-|
A|----------1---------------1---1------|
E|-------------------------------------|

            Am
e|-------------------------------------|
B|--0----------------------------------|
G|----2---2-----2--------2-------------|
D|------2-----2------------2--2--------|
A|----------1---------------1---1------|
E|-------------------------------------|

            Dm
e|-------------------------------------|
B|-------------------------------------|
G|----0--------------------------------|
D|------2---2-----2------2-------------|
A|--------3-----3----------3---3-------|
E|------------1--------------1---1-----|

            Bb
e|-------------------------------------|
B|----1--------------------------------|
G|------3---3------3-----3-------------|
D|--------3------3---------3---3-------|
A|-------------3-------------3---3-----|
E|-------------------------------------|




                 F
I need another story
                   Am
Something to get off my chest
                   Dm
My life gets kinda boring
                       Bb
Need something that I can confess


                F
'Til all my sleeves are stained red
               Am
From all the truth that I've said
                 Dm
Come by it honestly I swear
                     Bb
Thought you saw me wink, no
                    C
I've been on the brink, so

CHORUS:
                  F
Tell me what you want to hear
                  Am
Something that delight those ears
                Dm
Sick of all the insincere
                Bb      C          F
I'm gonna give all my secrets away
                               Am
This time, don't need another perfect lie
                           Dm
Don't care if critics ever jump in line
                Bb     C
I'm gonna give all my secrets away


F                        Am
My God, amazing that we got this far
                         Dm
It's like we're chasing all those stars
               Bb
Driving shiny big black cars

         F
And everyday I see the news
All the problems that we could solve
            Am
And when a situation rises
Just write it into an album
            Dm
Sending it straight to gold
                 Bb          C
I don't really like my flow, no, so

CHORUS:
                  F
Tell me what you want to hear
                  Am
Something that delight those ears
                Dm
Sick of all the insincere
                Bb      C          F
I'm gonna give all my secrets away
                               Am
This time, don't need another perfect lie
                           Dm
Don't care if critics ever jump in line
                Bb     C
I'm gonna give all my secrets away

F--Am--Dm--Bb--



    F                       Am
Oh, got no reason, got not shame
                     Dm
Got no family I can blame
                        Bb
Just don't let me disappear
                       C
I'm 'a tell you everything

CHORUS:
                  F
Tell me what you want to hear
                  Am
Something that delight those ears
                Dm
Sick of all the insincere
                Bb      C          F
I'm gonna give all my secrets away
                               Am
This time, don't need another perfect lie
                           Dm
Don't care if critics ever jump in line
                Bb     C
I'm gonna give all my secrets away

                     F
So tell me what you want to hear
                  Am
Something that delight those ears
                 Dm
Sick of all the insincere
                   Bb      C
So I'm gonna give all my secrets away
F                               Am
 This time, don't need another perfect lie
                            Dm
Don't care if critics ever jump in line
                Bb      C
I'm gonna give all my secrets away

F--Am--Dm--

Bb       C
All my secrets away...
F--Am--Dm--

Bb       C          F
all my secrets away...






***Hope you like it***
Send me messeges regarding your comments on my e-mail address posted above...
Thank you, "The Sorcerer's Apprentice" for letting me know this song!!
Tap to rate this tab
 
# A B C D E F G H I J K L M N O P Q R S T U V W X Y Z