Song name
# A B C D E F G H I J K L M N O P Q R S T U V W X Y Z

Onerepublic - Secrets tab

this isn't the whole song but it's most of the whole song so... enjoy!

INTRO
e|--------------------------------------------------------------------|
B|--------------------------------------------------------------------|
G|----0---0-----------0---0----------0---0-----------0---0------------|
D|--2---2---2---2---2---2---2---2---2--2---2---2---2---2---2---2------|
A|3-----------3---3-----------3---2----------2---2-----------2--------|
E|--------------------------------------------------------------------|

e|--------------------------------------------------------------------|
B|--------------------------------------------------------------------|
G|-----2---2-----------2---2-----------2---2-----------2---2----------|
D|---2---2---2---2---2---2---2---2---3---3---3---3---3---3---3---3----|
A|-0-----------0---0-----------0---0-----------0---0-----------0------|
E|--------------------------------------------------------------------|

VERSE
e|--------------------------------------------------------------------0|
B|----------------------------------------------------------------0-3--|
G|2-2-2-2-2-2----2-2-2-2-2------2-2-2-2-2-2---2-2-2-2-2-2-----2-2------|
D|------------4-------------4-2-------------4-------------0-0----------|
A|---------------------------------------------------------------------|
E|---------------------------------------------------------------------|

e|---------------------------------------------------------------------|
B|-2-3-----0-2-3-2-2---0-0-2-3-0-0---3-0-2-0-2-3-0-0-2-0-2-3-0---------|
G|-----2-2-------------------------2-----------------------------------|
D|---------------------------------------------------------------------|
A|---------------------------------------------------------------------|
E|---------------------------------------------------------------------|

CHORUS
e|--0--0--2-5-2-------0-2-5-2--------0-2-5-2----------3-2-0------------|
B|3--3----------3-3-3----------3-3-3----------3-3-3-3-------3-3-0------|
G|----------------------------------------------------------------2----|
D|---------------------------------------------------------------------|
A|---------------------------------------------------------------------|
E|---------------------------------------------------------------------|

e|-5-2---------0-2-5-2--------------0-2-5-2----------3-2-0-------------|
B|-----3-3-3-3----------3-3-3-3-3-3----------3-3-3-3--------3-3-0------|
G|-----------------------------------------------------------------2---|
D|---------------------------------------------------------------------|
A|---------------------------------------------------------------------|
E|---------------------------------------------------------------------|
Tap to rate this tab
# A B C D E F G H I J K L M N O P Q R S T U V W X Y Z