Song name
# A B C D E F G H I J K L M N O P Q R S T U V W X Y Z

Onerepublic - Secrets tab

SECRETS

Words by Ryan Tedder Music by OneRepublic
Arranged by Sion Oppeneer (Admira Solista)

Capo II


 4/4
  Gtr I
|-----------------|-----------------|-----------------|------------------|
|-----------------|-----------------|-----------------|------------------|
|-----0---0-------|-----0---0-------|-----0---0-------|-----0---0--------|
|---2---2---2---2-|---2---2---2---2-|---2---2---2---2-|---2---2---2---2--|
|-3-----------3---|-3-----------3---|-2-----------2---|-2-----------2----|
|-----------------|-----------------|-----------------|------------------|


|-----------------|-----------------|-----------------|-----------------|
|-----------------|-----------------|-----------------|-----------------|
|-----2---2-------|-----2---2-------|-----2---2-------|-------0-0-0-0-0-|
|---2---2---2---2-|---2---2---2---2-|---3---3---3---3-|-----3---3-------|
|-0-----------0---|-0-----------0---|-----------------|---3---3---3---3-|
|-----------------|-----------------|-1-----------1---|-1-----------1---|


 Verse
|-----------------|-----------------|-----------------|-----------------|
|-----------------|-----------------|-----------------|-----------------|
|-0---0---0-------|-----0---0-0-0-0-|-0---0---0-------|-----0-0-0-0-0-0-|
|---2-2-2---2---2-|---2---2---2---2-|---2-0h2-0h2---2-|---2---2---2---2-|
|-3-----------3---|-3-----------3---|-2-----------2---|-2-----------2---|
|-----------------|-----------------|-----------------|-----------------|


|-----------------|-----------------|-----------------|-----------------|
|-----------------|-----------------|-----------------|-----------------|
|-0---2---2-------|-----2-0-0-0-0-0-|-0---2---2-------|-----------0-0-2-|
|---2-2-2---2---2-|---2---2---2---2-|---3---3---3---3-|-----3---3-------|
|-0-----------0---|-0-----------0---|-----3---3-------|---3---3---3---3-|
|-----------------|-----------------|-1-----------1---|-1-----------1---|


|-----------------|-------------------|-----------------|-------------------|
|-1---3---0---1---|-(1)---------------|-0---0---0---0---|-(0)---------0---0-|
|-----0---0-------|-------0---0-0-0-2-|-----0---0-------|-------0---0---2---|
|---2---2---2---2-|-----2---2---2---2-|---2---2---2---2-|-----2---2---2---2-|
|-3-----------3---|--3------------3---|-2-----------2---|--2------------2---|
|-----------------|-------------------|-----------------|-------------------|


|-----------------|-----------------|-----------------|-----------------|
|-1---------------|-----------0---0-|-1---------0---0-|-1-------1-1-1-3-|
|-----2---2---2---|-2---2---2---2---|-----2---2---2---|-----2-----------|
|---2---2---2---2-|---2---2---2---2-|---3---3---3---3-|-----3---3-------|
|-0-----------0---|-0-----------0---|-----------------|---3---3---3---3-|
|-----------------|-----------------|-1-----------1---|-1-----------1---|


 Chorus
  $
|-0---3---0-------|-(0)---------------|-0---3---0-------|-(0)---------------|
|-----------------|-----------1-1-1-3-|-----------------|-------1---1-1-1-3-|
|-----0---0-------|-------0---0-------|-----0---0-------|-------0---0-------|
|---2---2---2---2-|-----2---2---2---2-|---2---2---2---2-|-----2---2---2---2-|
|-3-----------3---|--3------------3---|-2-----------2---|--2------------2---|
|-----------------|-------------------|-----------------|-------------------|


|-0---3---0-------|-(0)---------------|-1-------0-------|-----------------|
|-----------------|-------1-1-1-1-1---|-----------------|-3---1---1---1---|
|-----2---2-------|-------2---2-------|-----2---2-------|-----------------|
|---2---2---2---2-|-----2---2---2---2-|---3---3---3---3-|-----3---3-------|
|-0-----------0---|--0------------0---|-----------------|---3---3---3---3-|
|-----------------|-------------------|-1-----------1---|-1-----------1---|


|-----3---0-------|-(0)---------------|-0---3---0-------|-(0)---------------|
|-----------------|-------1---1-1-1-3-|-----------------|-------1-1-1-1-1-3-|
|-----0---0-------|-------0---0-------|-----0---0-------|-------0---0-------|
|---2---2---2---2-|-----2---2---2---2-|---2---2---2---2-|-----2---2---2---2-|
|-3-----------3---|--3------------3---|-2-----------2---|--2------------2---|
|-----------------|-------------------|-----------------|-------------------|


                                                                 To Coda
|-0---3---0-------|-(0)---------------|-1-------0-------|-----------------|
|-----------------|-------1---1-1-1---|-----------------|-3---1---1---1---|
|-----2---2-------|-------2---2-------|-----2---2-------|-----------------|
|---2---2---2---2-|-----2---2---2---2-|---3---3---3---3-|-----3---3-------|
|-0-----------0---|--0------------0---|-----------------|---3---3---3---3-|
|-----------------|-------------------|-1-----------1---|-1-----------1---|


 Verse
|-----------------|-------------------|-----------------|-------------------|
|-----1---1-------|-(1)-----1-1-1-1-1-|-0---0---0-------|-(0)-----0-0-0-0-0-|
|-----0---0-------|-------0---0-------|-----0---0-------|-------0---0-------|
|---2---2---2---2-|-----2---2---2---2-|---2---2---2---2-|-----2---2---2---2-|
|-3-----------3---|--3------------3---|-2-----------2---|--2------------2---|
|-----------------|-------------------|-----------------|-------------------|


|-----------------|-------------------|-----------------|-------------------|
|-----------------|-------------0-1---|-----------------|-------------1-1-1-|
|-2---2---2-------|-(2)---2-2-2-----2-|-2---2---2-------|-(2)---------------|
|---2---2---2---2-|-----2---2---2---2-|---3---3---3---3-|-------3---3-------|
|-0-----------0---|--0------------0---|-----------------|-----3---3---3---3-|
|-----------------|-------------------|-1-----------1---|--1------------1---|


|-----------------|-----------------|-----------------|-----------------|
|-1-1-1-1-1-1-1-1-|-1-1-1-1-1-1-1-1-|-1-1-1-1-1-1-1-1-|-1-1-1-1-1-1-1-1-|
|-----0---0-------|-----0---0-------|-----0---0-------|-----0---0-------|
|---2---2---2---2-|---2---2---2---2-|---2---2---2---2-|---2---2---2---2-|
|-3-----------3---|-3-----------3---|-2-----------2---|-2-----------2---|
|-----------------|-----------------|-----------------|-----------------|


                                                              D.S. al Coda
|-----------------|-------------------|-----------------|-------------------|
|-1---3-----------|---------1-1-1-1-1-|-1---3-----------|-----------1-1-1-3-|
|-----2---2-------|-(2)---2---2-------|-----2---2-----0-|-(0)---------------|
|---2---2---2---2-|-----2---2---2---2-|---3---3---3---3-|-------3---3-------|
|-0-----------0---|--0------------0---|-----------------|-----3---3---3---3-|
|-----------------|-------------------|-1-----------1---|--1------------1---|


 Interlude
  &
|----0---0---0----0-|----0---0------|---0---0---0---0-|---0---0------|
|------8---8--------|------8---8----|-----8---8-------|-----8---8----|
|-------------------|---------------|-----------------|--------------|
|-10-----------10---|-10------------|-9-----------9---|-9------------|
|-------------------|---------------|-----------------|--------------|
|-------------------|---------------|-----------------|--------------|


|---0----0----0---0-|---0----0-------|-----1---1-------|-----0--0------|
|-----10---10-------|-----10---10----|---1---1---1---1-|---1-------3p1-|
|-------------------|----------------|-----------------|---------------|
|-7-------------7---|-7--------------|-3-----------3---|-3-------------|
|-------------------|----------------|-----------------|---------------|
|-------------------|----------------|-----------------|---------------|


 Bridge
|-----------------|-----------------|-----------------|-----------------|
|---------1---1---|-1-------1---1---|-3-------0---0---|-0-------0---0---|
|-----0---0-------|-----0---0-------|-----0---0-------|-----0---0-------|
|---2---2---2---2-|---2---2---2---2-|---2---2---2---2-|---2---2---2---2-|
|-3-----------3---|-3-----------3---|-2-----------2---|-2-----------2---|
|-----------------|-----------------|-----------------|-----------------|


|-----------------|-----------------|-----------------|-----------------|
|-1---------------|-------------1---|-1-------1---1-3-|-3-1-1---1-1-1-3-|
|-----2---2---2---|-2---0---0-------|-----2---2-2-----|-----------------|
|---2---2---2---2-|---2---2---2---2-|---3---3---3---3-|-----3---3-------|
|-0-----------0---|-0-----------0---|-----------------|---3---3---3---3-|
|-----------------|-----------------|-1-----------1---|-1-----------1---|


 Chorus
|-0---3---0-------||--(0)---------------|
|-----------------||o-----------1-1-1-3-|
|-----0---0-------||--------0---0-------|
|---2---2---2---2-||------2---2---2---2-|
|-3-----------3---||o--3------------3---|
|-----------------||--------------------|


|-0---3---0-------|-(0)-----------------|
|-----------------|-------1---1-1-1-3---|
|-----0---0-------|-------0---0---------|
|---2---2---2---2-|-----2---2---2---2---|
|-2-----------2---|--2------------2-----|
|-----------------|---------------------|


|-0---3---0-------|-(0)---------------|-1-------0-------|-----------------|
|-----------------|-------1-1-1-1-1---|-----------------|-3---1---1---1---|
|-----2---2-------|-------2---2-------|-----2---2-------|-----------------|
|---2---2---2---2-|-----2---2---2---2-|---3---3---3---3-|-----3---3-------|
|-0-----------0---|--0------------0---|-----------------|---3---3---3---3-|
|-----------------|-------------------|-1-----------1---|-1-----------1---|


|-----3---0-------|-(0)---------------|-0---3---0-------|-(0)---------------|
|-----------------|-------1---1-1-1-3-|-----------------|-------1-1-1-1-1-3-|
|-----0---0-------|-------0---0-------|-----0---0-------|-------0---0-------|
|---2---2---2---2-|-----2---2---2---2-|---2---2---2---2-|-----2---2---2---2-|
|-3-----------3---|--3------------3---|-2-----------2---|--2------------2---|
|-----------------|-------------------|-----------------|-------------------|


                                                          1.
|-0---3---0-------|-(0)---------------|-1-------0-------|-----------------|
|-----------------|-------1---1-1-1---|-----------------|-3---1---1-1-1-3-|
|-----2---2-------|-------2---2-------|-----2---2-------|-----------------|
|---2---2---2---2-|-----2---2---2---2-|---3---3---3---3-|-----3---3-------|
|-0-----------0---|--0------------0---|-----------------|---3---3---3---3-|
|-----------------|-------------------|-1-----------1---|-1-----------1---|


                                         Outro
                      2.
|-0---3---0--------||-----------------||------------------|-----------------|
|-----------------o||-3---1---1---1---||o-----------------|---------1-------|
|-----0---0--------||-----------------||------0---0-------|-----0---0-------|
|---2---2---2---2--||-----3---3-------||----2---2---2---2-|---2---2---2---2-|
|-3-----------3---o||---3---3---3---3-||o-3-----------3---|-3-----------3---|
|------------------||-1-----------1---||------------------|-----------------|


|-------------------|-----------------|-------------------|-----------------|
|-(1)---------------|---------1-------|-(1)---------------|---------1-------|
|-------0---0-------|-----0---0-------|-------2---2-------|-----2---2-------|
|-----2---2---2---2-|---2---2---2---2-|-----2---2---2---2-|---2---2---2---2-|
|--2------------2---|-2-----------2---|--0------------0---|-0-----------0---|
|-------------------|-----------------|-------------------|-----------------|


                    1.                  2.=H
|-1-------0-------|------------------||----------------*|----|
|-----------------|-3---1---1---1---o||-3---1---1---1--*|----|
|-----2---2-------|------------------||----------------*|----|
|---3---3---3---3-|-----3---3--------||-----3---3------*|----|
|-----------------|---3---3---3---3-o||---3---3---3----*|----|
|-1-----------1---|-1-----------1----||-1-----------1--*|----|


(c) Sion Oppeneer
Only to be used for non-commercial purposes.
Tap to rate this tab
 
# A B C D E F G H I J K L M N O P Q R S T U V W X Y Z