Song name
# A B C D E F G H I J K L M N O P Q R S T U V W X Y Z

Onerepublic - Counting Stars chords

Highlighted       Show chord diagrams
-------------------------------------------------------------------------------
     Counting Stars - OneRepublic
-------------------------------------------------------------------------------
Tabbed by: cajoan

Tuning: Standard

   C#m                         E
e|-------4-----------4--------------------------|
B|-------5-----------5-----------9-----------9--|
G|----6-----6-----6-----6--------9-----------9--|
D|----------------------------9-----9-----9-----|
A|-4-----------4-----------7-----------7--------|
E|----------------------------------------------|
   B                           A
e|-------------------------------------------------:|---------------------|
B|-------7-----------7-----------5-----------5-----:|------5-----------5--|
G|-------8-----------8-----------6-----------6-----:|------6-----------6--|
D|----9-----9-----9-----9-----7-----7-----7-----7--:|---7-----7-----7-----|
A|-------------------------7-----------7-----------:|7-----------7--------|
E|-7-----------7-----------------------------------:|---------------------|

C#m                  E
Lately, I've been, I've been losing sleep
B                                A
Dreaming about the things that we could be
C#m                  E
But baby, I've been, I've been playing hard,
B      
Sitting, no more counting dollars
A
We'll be counting stars, yeah we'll be counting stars

C#m
I see this life like a swinging vine
E
Swing my heart across the line
B
And my face is flashing signs
A
Seek it out and you shall find
C#m
Oh, but I'm not that old
E
Young, but I'm not that bold
B       
I don't think the world is sold
A
I'm just doing what we're told
C#m E                    B
I.... feel something so right
          A
Doing the wrong thing
C#m E                    B
I.... feel something so wrong
            A
Doing the right thing
A
I could lie, could lie, could lie
A                                           C#m
Everything that kills me makes me feel alive

same as above here:

Lately, I've been, I've been losing sleep
Dreaming about the things that we could be
But baby, I've been, I've been playing hard,
Sitting, no more counting dollars
We'll be counting stars

Lately, I've been, I've been losing sleep
Dreaming about the things that we could be
But baby, I've been, I've been playing hard,
Sitting, no more counting dollars
We'll be, we'll be counting stars

I feel the love and I feel it burn
Down this river, every turn
Hope is a four-letter word
Make that money, watch it burn
Oh, but I'm not that old
Young, but I'm not that bold
I don't think the world is sold
I'm just doing what we're told
I feel something so wrong
Doing the right thing
I could lie, could lie, could lie
Everything that downs me makes me wanna fly

Lately, I've been, I've been losing sleep
Dreaming about the things that we could be
But baby, I've been, I've been playing hard,
Sitting, no more counting dollars
We'll be counting stars

Lately, I've been, I've been losing sleep
Dreaming about the things that we could be
But baby, I've been, I've been playing hard,
Sitting, no more counting dollars
We'll be, we'll be counting stars

Take that money
Watch it burn
Sing in the river
The lessons are learnt

Take that money
Watch it burn
Sing in the river
The lessons are learnt

Take that money
Watch it burn
Sing in the river
The lessons are learnt

Take that money
Watch it burn
Sing in the river
The lessons are learnt

A                 F#m
Everything that kills me makes feel alive

Lately, I've been, I've been losing sleep
Dreaming about the things that we could be
But baby, I've been, I've been playing hard,
Sitting, no more counting dollars
We'll be counting stars

Lately, I've been, I've been losing sleep
Dreaming about the things that we could be
But baby, I've been, I've been playing hard,
Sitting, no more counting dollars
We'll be, we'll be, counting stars

Take that money
Watch it burn
Sing in the river
The lessons are learnt

Take that money
Watch it burn
Sing in the river
The lessons are learnt

Take that money
Watch it burn
Sing in the river
The lessons are learnt

Take that money
Watch it burn
Sing in the river
The lessons are learnt
Tap to rate this tab
# A B C D E F G H I J K L M N O P Q R S T U V W X Y Z