Song name
# A B C D E F G H I J K L M N O P Q R S T U V W X Y Z

Onerepublic - I Lived tab

Great, great song. I was surprised there wasn't a tab for it on the site, so here it is.

This is how they play it, it's pretty much all accurate.

Capo 7

Plucking used throughout: (plucking D, Bm, and G)

  Hope when you take that jump....
   D 
e|---2---------2---------2---------3----------------------------------------|
B|--------------------------------------------------------------------------|
G|------------------------------------------(6x)----------------------------|
D|-0---0---0-0---0---0-0---0---0-0---0-0------------------------------------|
A|--------------------------------------------------------------------------|
E|--------------------------------------------------------------------------|

  Hope when the crowd screams out....
   Bm                                    G
e|---2---------2---------2---------3---------2---------2---------2--------3---|
B|----------------------------------------------------------------------------|
G|----------------------------------------------------------------------------|
D|----------------------------------------------------------------------------|
A|-2---2---2-2---2---2-2---2---2-2---2-2--------------------------------------|
E|-----------------------------------------3---3---3-3---3---3-3---3---3-3-3-3|


  Hope if everybody runs...
   D 
e|---2---------2---------2--------------------------------------------------|
B|-------------------------------3~-----------------------------------------|
G|--------------------------------------------------------------------------|
D|-0---0---0-0---0---0-0---0---0--------------------------------------------|
A|--------------------------------------------------------------------------|
E|--------------------------------------------------------------------------|

 D
Hope that you fall in love and it hurts so bad

The only way you can know you gave it all you had
      Bm                                       G
And I hope that you don't suffer but take the pain
 D
Hope when the moment comes, you'll say


D
I, I did it all

I, I did it all
   Bm
I owned every second that this world could give
      G
I saw so many places, the things that I did
           Bm           G
Yeah with every broken bone
                D
I swear I lived


Hope that you spend your days and they all add up

And when that sun goes down hope you raise your cup
   Bm                                G
I wish that I could witness all your joy

And all your pain
 D
But until my moment comes I'll say
 D
I, I did it all

I, I did it all
   Bm
I owned every second that this world could give
      G
I saw so many places, the things that I did
           Bm           G
Yeah with every broken bone

I swear I lived


 D
Oh whoa oh oh oh oh oh (2x)
 Bm
Oh whoa oh oh oh oh oh
 G
Oh whoa oh oh oh oh oh

With every broken bone

I swear I lived

With every broken bone

I swear I


 D
I, I did it all

I, I did it all
   Bm
I owned every second that this world could give
      G
I saw so many places, the things that I did
           Bm           G (once)
Yeah with every broken bone

I swear I lived
 D
Oh whoa oh oh oh oh oh (x4)

End on D.
Tap to rate this tab
# A B C D E F G H I J K L M N O P Q R S T U V W X Y Z