Song name
# A B C D E F G H I J K L M N O P Q R S T U V W X Y Z

Onerepublic - If I Lose Myself tab

OneRepublic - If I Lose Myself

I arranged it for 2 guitars, hope U like it. :)

Tuning - Standard


Guitar 1 plays the piano melody throughout the whole song:

|-------------------------------------------------------------------|
|-----------------------------8-8-----------------------------8-8---|
|-7-7-----7-7-----7-7-----7-7-----7-7-----7-7-----7-7-----7-7-------|
|-----7-7-----7-7-----7-7-------------7-7-----7-7-----7-7-----------|
|-------------------------------------------------------------------|
|-------------------------------------------------------------------|
                                                                     
|---------------------------------------------------------------7-7-|
|-----------------------------10-10---------------------------------|
|-7-7-----7-7-----7-7-----7-7-------7-7-----7-7-----7-7-----7-7-----|
|-----7-7-----7-7-----7-7---------------7-7-----7-7-----7-7---------|
|-------------------------------------------------------------------|
|-------------------------------------------------------------------|

Intro and Verse 1 - just guitar 1 (4 repeats altogether)

Guitar 2 - enters on Chorus(1st chorus is 1 measure longer than 2nd):

|-----------------------------------------------------------------|
|-----------------------------8-8-----------------------------8-8-|
|-7-7-----7-7-----7-7-----7-7-----7-7-----7-7-----7-7-----7-7-----|
|-----7-7-----7-7-----7-7-------------7-7-----7-7-----7-7---------|
|-----------------------------------------------------------------|
|-----------------------------------------------------------------|
| Bm              G               D                               |
|-2---------------3---------------2-------------------------------|
|-3---------------3---------------3-------------------------------|
|-4---------------4---------------2-------------------------------|
|-4---------------5---------------0-------------------------------|
|-2---------------5-----------------------------------------------|
|-----------------3-----------------------------------------------|

|---------------------------------------------------------------7-7-|
|-----------------------------10-10---------------------------------|
|-7-7-----7-7-----7-7-----7-7-------7-7-----7-7-----7-7-----7-7-----|
|-----7-7-----7-7-----7-7---------------7-7-----7-7-----7-7---------|
|-------------------------------------------------------------------|
|-------------------------------------------------------------------|
| Bm              G                 D                               |
|-2---------------3-----------------2-------------------------------|
|-3---------------3-----------------3-------------------------------|
|-4---------------4-----------------2-------------------------------|
|-4---------------5-----------------0-------------------------------|
|-2---------------5-------------------------------------------------|
|-----------------3-------------------------------------------------|

On 2nd repeat start with power chords:

|-----------------------------------------------------------------|
|-----------------------------8-8-----------------------------8-8-|
|-7-7-----7-7-----7-7-----7-7-----7-7-----7-7-----7-7-----7-7-----|
|-----7-7-----7-7-----7-7-------------7-7-----7-7-----7-7---------|
|-----------------------------------------------------------------|
|-----------------------------------------------------------------|
| B5              G5              D5                              |
|-----------------------------------------------------------------|
|-----------------------------------------------------------------|
|---------------------------------2-2-2-2-2-2-2-2-2-2-2-2-2-2-2-2-|
|-4-4-4-4-4-4-4-4-----------------0-0-0-0-0-0-0-0-0-0-0-0-0-0-0-0-|
|-2-2-2-2-2-2-2-2-5-5-5-5-5-5-5-5---------------------------------|
|-----------------3-3-3-3-3-3-3-3---------------------------------|

|-------------------------------------------------------------------|
|-----------------------------10-10---------------------------------|
|-7-7-----7-7-----7-7-----7-7-------7-7-----7-7-----7-7-----7-7-----|
|-----7-7-----7-7-----7-7---------------7-7-----7-7-----7-7-----7-7-|
|-------------------------------------------------------------------|
|-------------------------------------------------------------------|
| B5              G5                D5                              |
|-------------------------------------------------------------------|
|-------------------------------------------------------------------|
|-----------------------------------2-2-2-2-2-2-2-2-2-2-2-2-2-2-2-2-|
|-4-4-4-4-4-4-4-4-------------------0-0-0-0-0-0-0-0-0-0-0-0-0-0-0-0-|
|-2-2-2-2-2-2-2-2-5-5-5-5-5-5-5-5-----------------------------------|
|-----------------3-3-3-3-3-3-3-3-----------------------------------|

|-----------------------------7-7-|
|---------------------------------|
|-7-7-----7-7-----7-7-----7-7-----|
|-----7-7-----7-7-----7-7---------|
|---------------------------------|
|---------------------------------|
|                                 |
|---------------------------------|
|---------------------------------|
|-2-2-2-2-2-2-2-2-2-2-2-2-2-2-2-2-|
|-0-0-0-0-0-0-0-0-0-0-0-0-0-0-0-0-|
|---------------------------------|
|---------------------------------|


*NOTE - there's no pause between G5 and D5, that space is there 
        because 10's on B string on guitar 1 took 2 spaces more;
        did it for the synchronization with 1st guitar.


Instrumental(Guitar 2 strums):

|-----------------------------------------------------------------|
|-----------------------------8-8-----------------------------8-8-|
|-7-7-----7-7-----7-7-----7-7-----7-7-----7-7-----7-7-----7-7-----|
|-----7-7-----7-7-----7-7-------------7-7-----7-7-----7-7---------|
|-----------------------------------------------------------------|
|-----------------------------------------------------------------|
| Bm              G               D                               |
|-2-2-2-2-2-2-2-2-3-3-3-3-3-3-3-3-2-2-2-2-2-2-2-2-2-2-2-2-2-2-2-2-|
|-3-3-3-3-3-3-3-3-3-3-3-3-3-3-3-3-3-3-3-3-3-3-3-3-3-3-3-3-3-3-3-3-|
|-4-4-4-4-4-4-4-4-4-4-4-4-4-4-4-4-2-2-2-2-2-2-2-2-2-2-2-2-2-2-2-2-|
|-4---------------5---------------0-------------------------------|
|-2---------------5-----------------------------------------------|
|-----------------3-----------------------------------------------|


|---------------------------------------------------------------7-7-|
|-----------------------------10-10---------------------------------|
|-7-7-----7-7-----7-7-----7-7-------7-7-----7-7-----7-7-----7-7-----|
|-----7-7-----7-7-----7-7---------------7-7-----7-7-----7-7---------|
|-------------------------------------------------------------------|
|-------------------------------------------------------------------|
| Bm              G                 D                               |
|-2-2-2-2-2-2-2-2-3-3-3-3-3-3-3-3---2-2-2-2-2-2-2-2-2-2-2-2-2-2-2-2-|
|-3-3-3-3-3-3-3-3-3-3-3-3-3-3-3-3---3-3-3-3-3-3-3-3-3-3-3-3-3-3-3-3-|
|-4-4-4-4-4-4-4-4-4-4-4-4-4-4-4-4---2-2-2-2-2-2-2-2-2-2-2-2-2-2-2-2-|
|-4---------------5-----------------0-------------------------------|
|-2---------------5-------------------------------------------------|
|-----------------3-------------------------------------------------|


Verse 2 - Guitar 2 plays power chords, but small pause on Guitar 1 
          in beginning:

|-----------------------------------------------------------------|
|-------------------------------------------------------------8-8-|
|---------------------------------7-7-----7-7-----7-7-----7-7-----|
|-------------------------------------7-7-----7-7-----7-7---------|
|-----------------------------------------------------------------|
|-----------------------------------------------------------------|
| Bm              G               D                               |
|-----------------------------------------------------------------|
|-----------------------------------------------------------------|
|---------------------------------2-2-2-2-2-2-2-2-2-2-2-2-2-2-2-2-|
|-4-4-4-4-4-4-4-4-----------------0-0-0-0-0-0-0-0-0-0-0-0-0-0-0-0-|
|-2-2-2-2-2-2-2-2-5-5-5-5-5-5-5-5---------------------------------|
|-----------------3-3-3-3-3-3-3-3---------------------------------|

... the rest goes the same.


Chorus 2 - same as 1st, but one measure shorter (without extended
           part in the end)

Instrumental - same as 1st one

Chorus 3 - same as instrumental

Outro:

  Bm              Bm      G       D               A
|-2---------------2-------3-------2---------------0-----------------|
|-3---------------3-------3-------3---------------2-----------------|
|-4---------------4-------4-------2---------------2-----------------|
|-4---------------4-------5-------0---------------2-----------------|
|-2---------------2-------5-----------------------0-----------------|
|-------------------------3-----------------------------------------|

  Bm              Bm      G       D       Bm      A
|-2---------------2-------3-------2-------2-------0-----------------|
|-3---------------3-------3-------3-------3-------2-----------------|
|-4---------------4-------4-------2-------4-------2-----------------|
|-4---------------4-------5-------0-------4-------2-----------------|
|-2---------------2-------5---------------2-------0-----------------|
|-------------------------3-----------------------------------------|
Tap to rate this tab
# A B C D E F G H I J K L M N O P Q R S T U V W X Y Z