Song name
# A B C D E F G H I J K L M N O P Q R S T U V W X Y Z

Onerepublic - Counting Stars tab

So, this is my first tab. If there are any mistakes, please message me, and I will fix them. :)


e|--------------------------------------------------------------------------|
B|-----5--------5------------9--------9-------------------------------------|
G|-----6--------6------------9--------9--------------8---------8------------|
D|---6--------6------------9--------9----------------9---------9------------|
A|-4------4-4-----4------7------7-7-----7---------9---------9---------------|
E|---------------------------------------------7-------7-7------7-----------|
    

e|--------------------------------------------------------------------------|
B|--------------------------------------------------------------------------|
G|-----6--------6-----------------------------------------------------------|
D|-----7--------7-------------x2-play A two times then strum 4strings-------|
A|---7--------7-------------------------------------------------------------|
E|-5------5-5------5--------------------------------------------------------|
   A
This is a part of intro and also the chorus. :)
e|--------------------------------------------------------------------------|
B|---5---5---5---5-------9---9---9--9---------------------------------------|
G|---6---6---6---6-------9---9---9--9--------8---8---8---8------------------|
D|-------------------------------------------9---9---9---9------------------|
A|-4---4---4---4-------7---7---7---7----------------------------------------|
E|-----------------------------------------7---7---7---7--------------------|
    
e|--------------------------------------------------------------------------|
B|--------------------------------------------------------------------------|
G|---6---6---6---6----------------------------------------------------------|
D|---7---7---7---7----------------------------------------------------------|
A|--------------------------------------------------------------------------|
E|-5---5---5---5------------------------------------------------------------|
Tap to rate this tab
# A B C D E F G H I J K L M N O P Q R S T U V W X Y Z