Song name
# A B C D E F G H I J K L M N O P Q R S T U V W X Y Z

Onerepublic - Counting Stars tab

Capo. fret 4

e|-------0----3----0-------0--------0-----0-------------0--1--0--------------|
B|-3-----1---------1----3-----3--1--------1-------3--3-----------3--1--------|
G|----2----2----2----2-----0-----0-----0-----0-------0-----------0-----------|
D|------------------------------------------------0-----------------0--------|
A|-0----------0---------3-----------3----------------------------------------|
E|---------------------------------------------3-----------3-----------------|

e|-0-----------------------------0-----3-----0--------0--------0-----0---|
B|-------------------1-----3-----1-----------1-----3-----3--1--------1---|
G|----2--2--0--2-----2--------2-----2-----2-----2-----0-----0-----0-----0|
D|----3-----------3-----3------------------------------------------------|
A|-3-----------3-----------0-----------0-----------3-----------3---------|
E|-----------------------------------------------------------------------|

e|----------0--1--0--------0--------------0--------------0-----------------3--0--|
B|----3--3-----------3--1-----3--3-----1-----3--3--1--1--------1-----------1-----|
G|-------0-----------0-----------2--2-----------2-----------2-----2-----2--------|
D|----0--------------------------------------------3-----------------------------|
A|-------------------------3-----------3--3-----------3--0-----------0-----------|
E|-3-----------3-----------------------------------------------------------------|

e|-------------------3--0--------------------3-----------------------------------|
B|-3-----1-----------1-----3--------------------0--1-----------------1-----------|
G|----------0--------------------0-----------0-----------2-----------2-----------|
D|----0-----------0-----------0-----0-----0-----------3-----3-----3-----3-----3--|
A|-3-----------3-----------------------------------3-----------3-----------3-----|
E|-------------------------3-----------3-----------------------------------------|

e|-------------------0-----------------3--0--------------------3--0--------------|
B|-1-----------1-----------1-----------1-----3-----1-----------1-----3-----------|
G|-2-----------2--------2-----2-----2-----------0-----0-----0--------------0-----|
D|----3-----3-----3-----------------------------------------------------0-----0--|
A|-------3-----------0-----------0-----------3-----------3-----------------------|
E|-------------------------------------------------------------------3-----------|

e|-------3-----------------------------0-----------0--0--0-----0--0--0--0--3--3--|
B|----------0--1-----------------1-----------1-----------1-----------1-----------|
G|-------0-----------2-----------2--------2-----2-----2-----2-----0-----0-----0--|
D|----0-----------3-----3-----3-----3--------------------------------------------|
A|-------------3-----------3-----------0-----------0-----------3-----------3-----|
E|-3-----------------------------------------------------------------------------|

e|-------0-----------0-----------0-----------0-----------------------5--3--------|
B|-3--------3--1--------3--3--------3--1--------1--1-----1--1--1--------1--3--1--|
G|----0-----------2--------0-----------2-----------2--------2-----2-----0--------|
D|----------0-----------0-----0-----------3-----3-----3-----------------------0--|
A|-------------------------------3-----------3-----------0-----------3-----------|
E|-------3-----------3-----------------------------------------------------3-----|

e|----0-----------------------------------5--3------------0----------------------|
B|-3-----3--0--0--0--0--1-----1--1--1--------1--3--1---3-----3--0--0--0--0--1----|
G|-0-----------------------2-----2-----2-----0---------0-----------------------2-|
D|----0--------------------------------------------0------0----------------------|
A|----------------------------0-----------3--------------------------------------|
E|-------3--------------------------------------3------------3-------------------|

e|-------------------------------------------------------------|
B|-------------------------------------------------------------|
G|-2--2--0--2--2--2--0--2--2--0--------------------------------|
D|-------------------------------0-----0--2--0--2--0-----------|
A|----------------------------------3-----------------0--3-----|
E|-------------------------------------------------------------|


And Repeat over and over 
Tap to rate this tab
 
# A B C D E F G H I J K L M N O P Q R S T U V W X Y Z