Song name
# A B C D E F G H I J K L M N O P Q R S T U V W X Y Z

Onerepublic - Counting Stars tab

This tab is pretty similar to the way most people play the song however i added a few 
hammer ons which is represented by the letter 'h' because it sounds better with the finger 
picking and helps the song lead into the next chord thus making it sound even more like the original 
by OneRepublic


make sure you go support my friend Doug's band on band camp they make some sick deathcore music

http://bargainers.bandcamp.com/


Capo 4

e|------------------------------------------------------------------------------|
B|-----5--------5h9-----------9--------9h8--------------------------------------|
G|-----6--------6------------9--------9--------------8---------8h6--------------|
D|---6--------6------------9--------9----------------9---------9----------------|
A|-4------4-4-----4------7------7-7-----7---------9---------9-------------------|
E|---------------------------------------------7-------7-7------7---------------|


e|-----------------------------------------------------------------------------|
B|-----------------------------------------------------------------------------|
G|-----6--------6h5------------------------------------------------------------|
D|-----7--------7-------------x2-play A two times then strum 4strings----------|
A|---7--------7----------------------------------------------------------------|
E|-5------5-5------5-----------------------------------------------------------|
   A

e|------------------------------------------------------------------------------|
B|---5---5---5---5h9------9---9---9--9h8----------------------------------------|
G|---6---6---6---6-------9---9---9--9--------8---8---8---8h6--------------------|
D|-------------------------------------------9---9---9---9----------------------|
A|-4---4---4---4-------7---7---7---7--------------------------------------------|
E|-----------------------------------------7---7---7---7------------------------|

e|--------------------------------------------------------------------------|
B|--------------------------------------------------------------------------|
G|---6---6---6---6----------------------------------------------------------|
D|---7---7---7---7----------------------------------------------------------|
A|--------------------------------------------------------------------------|
E|-5---5---5---5------------------------------------------------------------|
Tap to rate this tab
# A B C D E F G H I J K L M N O P Q R S T U V W X Y Z