Song name
# A B C D E F G H I J K L M N O P Q R S T U V W X Y Z

Onerepublic - Too Easy tab

Artist: One Republic
Title: Too Easy
Tuning:Standard

Intro/Verse/Chorus
e|------------5--------3-----------------------|
B|----8-----------------------5-------4--------|
G|---0-00----0-00-----0-00---0-00----0-0-------|
D|---------------------------------------------|
A|--7-------6-------5------4-------3-----------|
E|---------------------------------------------|


Pre-Chorus
e|-----------------------2-----2------3-----|
B|-----0---0----0----0----------------------|
G|----0---0----0----0---0-00--0-00---0-00---|
D|------------------------------------------|
A|-----------------2---0-----0-----0--------|
E|--0----2----3-----------------------------|
			^     ^     ^
	Some times this is played
e|------2----------3-------------------------|
B|-------------------------------2-----3-----|
G|-----0-0--and---0-0----@2:14--0-00--0-00---|
D|----5---5------5---5-----------------------|
A|---0----------0--------------0-----0-------|
E|-------------------------------------------|


gregJew
Tap to rate this tab
# A B C D E F G H I J K L M N O P Q R S T U V W X Y Z