Song name
# A B C D E F G H I J K L M N O P Q R S T U V W X Y Z

Oney - Hellbenders Theme tab

Okay if I messed up and wrote EADGBE instead of DADGBE in one of the tab things
just ignore it the whole song is all in drop D


This is the story of two friends; Chris and Zach
LEAD
E----------------------------------------------------|
B----------------------------------------------------|
G-----4-----------5------------------------4---------|
D--------5-----------5--------6---------------5------|
A--7--------7--6-----------9-----9----6-7------------|
D----------------------------------------------------|
Palm mute but only if you want

RHYTHM
E----------------------------------------------------|
B----------------------------------------------------|
G----------------------------------------------------|
D--2--2--2--2--1--1--1-----3--3--3--2-1-2--2--2------|
A--2--2--2--2--1--1--1-----3--3--3--2-1-2--2--2------|
D--2--2--2--2--1--1--1-----3--3--3--2-1-2--2--2------|
PM *  *  *  *  *  *  *     *  *  *  * * *  *  *



They live in a world surrounded by not-so-normal things

LEAD
E--7----------------------------------------------------------|
B-----------8------------------------6--------8-6-5-----------|
G--------------------8-----------5-8--------------------------|
D-------------------------------------------------------------|
A-------------------------------------------------------------|
D-------------------------------------------------------------|

RHYTHM
E-------------------------------------------------------------|
B-------------------------------------------------------------|
G-------------------------------------------------------------|
D--2--------2--------1---1---1---1---3--3--3--5-3-2--2--2--2--|
A--2--------2--------1---1---1---1---3--3--3--5-3-2--2--2--2--|
D--2--------2--------1---1---1---1---3--3--3--5-3-2--2--2--2--|

*instrumental break*
LEAD
E--19----------------------------------------------------------------|
B-----------20--------------------------18--------20-18-17-----------|
G--------------------20-----------17-20------------------------------|
D--------------------------------------------------------------------|
A--------------------------------------------------------------------|
D--------------------------------------------------------------------|

RHYTHM
E--------------------------------------------------------------------|
B--------------------------------------------------------------------|
G--------------------------------------------------------------------|
D--2--------2--------1---1---1---1------3--3--3---5--3--2--2--2--2---|
A--2--------2--------1---1---1---1------3--3--3---5--3--2--2--2--2---|
D--2--------2--------1---1---1---1------3--3--3---5--3--2--2--2--2---|


*instrumental break continued*
NO LEAD
E-----------------------------------15p12--12h15p12h13-|
B----------------------------------------13------------|
G------------------------------------------------------|
D------------------------------------------------------|
A------------------------------------------------------|
D------------------------------------------------------|
RHYTHM                                       *don't hold out that last note!*
E------------------------------------------------------|
B------------------------------------------------------|
G------------------------------------------------------|
D--2----5----4----5----6--------5-------------------3--|
A--2----5----4----5----6--------5-------------------3--|
D--2----5----4----5----6--------5-------------------3--|


They are...the Hellbenders...


For those who can't sweep:
E--t15-p12-p8-h12-t15-p12-h13-|
B-----------------------------|
G-----------------------------|
D-----------------------------|
A-----------------------------|
D-----------------------------|
Tap to rate this tab
 
# A B C D E F G H I J K L M N O P Q R S T U V W X Y Z