Song name
# A B C D E F G H I J K L M N O P Q R S T U V W X Y Z

Only Crime - Shotgun tab

Help us improve GuitareTab! Take a short survey!
ONLY CRIME - SHOTGUN

there are two guitars..divided into 2 different mixes..the right speaker..and the left speaker

standard tuning
_________________________________________________________________

Intro (left)

|--------------------------------------|
|--------------------------------------|
|--------------------------------------|
|-22222222-22222222-22222222-222222222-|
|-00000000-00000000-00000000-000000000-|
|----------00000000-11111111-333333333-|

|---------------------------------|
|---------------------------------|
|---------------------------------|
|-2222222-2222222-2222222-2222222-|
|-0000000-0000000-3333333-2222222-|
|---------3333333-1111111-0000000-|
________________________________________________________________

Intro (right)--also is reapeated on the first verse

|-------------------------------8---|
|-----------------------------------|
|---------14-------10-----910-9-----|
|----------x--------x-----x-x-x-----|
|---------12--------8-----7-8-7-----|
|-----------------------------------|

_________________________________________________________________

Verse (both)
pm . . . . . . ..  ..  ..  ..  ..  ..
|--------------------------------------|
|--------------------------------------|
|--------------------------------------|
|-22222222-22222222-22222222-222222222-|
|-00000000-00000000-00000000-000000000-|
|----------00000000-11111111-333333333-|

.. .. .. ....   .... ... ...  ...
|---------------------------------|
|---------------------------------|
|---------------------------------|
|-2222222-2222222-2222222-2222222-|
|-0000000-0000000-3333333-2222222-|
|---------3333333-1111111-0000000-|
_____________________________________________________________________

Chorus

|--------------------------------------------|
|--------------------------------------------|
|--555555555------------777777777------------|
|--555555555-5555555555-777777777-3333333333-|
|--333333333-5555555555-555555555-3333333333-|
|------------3333333333-----------1111111111-|

___________________________________________________________________
bridge (left)

|----------------------------------------------------------------|
|---2-5-5h7p5-2---2----3----1------------------------------------|
|-2-------------1-----2-2--3-3---999999--------5555555-----------|
|------------------4------2------777777-000000-3333333-22222222--| x 2
|--------------------------------777777-222222-3333333-22222222--|
|---------------------------------------333333---------00000000--|

______________________________________________________________________

bridge(right)

|----------------------------------------------------|
|----------------------------------------------------|
|-222---------777--6---6-----------------------------|
|-222-777-555-777---7---7--7h9p7----6h7p6-4-2-4------|  X2
|-000-444-555-555----7---7-------7-------------------|
|-----555-333---------------------8------------------|

***second time end with 
|---|
|---|
|-5-|
|-x-|
|-3-|
|---|

__________________________________________________________________

The final chorus is different on the right speaker
(2:13)

|--------------------------------------------|
|--------------------------------------------|
|--555555555------------777777777------------|
|--555555555-5555555555-777777777-3333333333-|
|--333333333-5555555555-555555555-3333333333-|
|------------3333333333-----------1111111111-|

|------------------------------------------------------------------|
|------------------------------------------------------------------|
|-9999999991010109999777777999910101010107777777771010101010101010-|
|-xxxxxxxxxxxxxxxxxxx777777xxxxxxxxxxxxxxxxxxxxxxx-xxxxxxxxxxxxxxx-|
|-777777777-8-8-877775555557777-8-8-8-8-8555555555-8-8-8-8-8-8-8-8-|
|------------------------------------------------------------------|

|----------------------------------------------------------|
|10101010--------------------------------------------------|
|-xxxxxxx99991010------9999910107777777--------------------|
|-7777777xxxxxxxx555555xxxxxxxxxxxxxxxx3333333333333333333-|
|--------7777888855555577777888855555553333333333333333333-|
|----------------333333----------------1111111111111111111-|
                                       ......... 
|----------|
|----------|
|-3---7-7--|
|-3---5-7--| END ON RIGHT
|-1---5-4--|
|----------|

________________________________________________________________

end on left is different the outro

(2:48)
|-------------------|
|-------------------|
|---------2-5-7-8---|
|--0-3-5-4----------|
|-1-----------------|
|-------------------|




Related for Shotgun tab