Song name
# A B C D E F G H I J K L M N O P Q R S T U V W X Y Z

Only Ones - Another Girl Another Planet tab

G)--------------------------------------------|
D)--------------------------------------------|
A)---------2-2-2-2-2-3-4-4-4-2-0-0-0-0-2-4-2--|
E)-0-0-0-0------------------------------------|

That's basically the whole song, but when it goes 'Another girl, another planet' it goes:

G)---------------------------------|
D)---------------------------------|
A)-----0-0-----0-0---------5-5-----|
E)-0-0-----0-0-----0-0-7-7-----5-5-|

If you want to play the Blink 182 version its the same but in the key of G.
Tap to rate this tab
# A B C D E F G H I J K L M N O P Q R S T U V W X Y Z