Song name
# A B C D E F G H I J K L M N O P Q R S T U V W X Y Z

Only Seven Left - Goodbye Now tab

-----------------------------------------------------------------------------
		        Only Seven Left - Goodbye Now
-----------------------------------------------------------------------------
Tabbed by: Jochem
Tuning: Normal


Intro/Verse guitar 1:
e|-------------------------0---------------------------------|
B|-------0----0---------0----0-------------------------------|
G|-----2--------2-----2--------2-----------------------------|
D|---2--------------2----------------------------------------|
A|-0---------------------------------------------------------|
E|----------------2------------------------------------------|

Intro/Verse guitar 2:
e|-----------------------------------------------------------| 
B|---------0---------------0---------------------------------|
G|-----2-----2---2-----2-----2---2---------------------------|
D|---2---2-----2-----2---2-----2-----------------------------|
A|-0---------------------------------------------------------|
E|-----------------2-----------------------------------------|

Chorus guitar 1:
e|--3333--3333--3333--3333-----------------------------------| Find out the strubbing
B|--3333--3333--3333--3333-----------------------------------| by listening to the
G|--0000--2222--0000--2222-----------------------------------| song please.
D|--0000--0000--2222--0000-----------------------------------|
A|--2222--0000--2222--0000-----------------------------------|
E|--3333--2222--0000--2222-----------------------------------|

Chorus guitar 2:
e|-----------------------------------------------------------------|
B|---------0---------------3---1-----------0---1-----------3-------|
G|-----0-----0---0-----0-----0---0-----0-----0---0-----0-----2---2-|
D|---0---0-----0-----0---0-----------0---0-----------0---0-----0---|
A|-----------------------------------------------------------------|
E|-3---------------2---------------0---------------2---------------|

Solo guitar 1:
e|-2-3---7-2---2-7--8-10-10---2-3---2-2h3p2------------------|
B|------------------------------------------3---5-3-1-0------|
G|------------------------------------------------------2----|
D|-----------------------------------------------------------|
A|-----------------------------------------------------------|
E|-----------------------------------------------------------|  

Solo guitar 2:
e|-----------------------------------------------------------------|
B|---------0---------------3---1-----------0---1-----------3-------|
G|-----0-----0---0-----0-----0---0-----0-----0---0-----0-----2---2-|
D|---0---0-----0-----0---0-----------0---0-----------0---0-----0---|
A|-----------------------------------------------------------------|
E|-3---------------2---------------0---------------2---------------|

Cello solo guitar:
e|-----------------------------------------------------------------|
B|-----------------------------------------------------------------|
G|-----------------------------------------------------------------|
D|-4-5555-999-444444-999-101010-9-121212---------------------------|
A|-x-xxxx-xxx-xxxxxx-xxx-x-x-x--x-x-x-x----------------------------|
E|-2-3333-777-222222-777-8-8-8--7-101010---------------------------|

e|-----------------------------------------------------------------|
B|-----------------------------------------------------------------|
G|-----------------------------------------------------------------|
D|-4-5555-999-444444-999-101010-9-1212121212-12-12-----------------|
A|-x-xxxx-xxx-xxxxxx-xxx-x-x-x--x-x-x-x-x-x--x--x------------------|
E|-2-3333-777-222222-777-8-8-8--7-1010101010-10-10-----------------|

| h  hammer-on
| p  pull-off
| ~  vibrato
| +  harmonic
| M  mute note

www.onlysevenleft.com
Tap to rate this tab
 
# A B C D E F G H I J K L M N O P Q R S T U V W X Y Z