Song name
# A B C D E F G H I J K L M N O P Q R S T U V W X Y Z

Only1noah - Sexy And I Know It tab

-----------------------------------------------------------------------------
             Sexy And I Know It - LMFAO (Covered by "Only1Noah" on youtube)
-----------------------------------------------------------------------------
Tabbed by: DBug2012

NOTE: This is just the basic idea of the way it was done, just to get it out
 there because no one has tabbed it out. I personally do not care for tabs, 
especially making them, I see them as just a tool to get the idea of how to 
play something to HELP you learn, not to be dependent on. If you really want 
to get this song down right, look at this and then look it up on youtube. 
This is a really bad ass re-composition of this song, It just needs to be 
spread to the masses. Thanks for looking, I'm not looking to get any 
feedback on this, I just want it out there. 


Tuning: Standard Tuning

Intro: E G A

e|-----------------------------------------------------------------|
B|-----------------------------------------------------------------|
G|--1-------------------4---------6--------------------------------|Repeat x4
D|--2--------------------------------------------------------------|
A|--2-------------------5---------7--------------------------------|
E|--0-0-3p-0---------3---------5-----------------------------------|

Verse:
    E                 G         A
e|-----------------------------------------------------------------|
B|-----------------------------------------------------------------|Repeat as
G|--1-------------------4---------6--------------------------------|needed
D|--2--------------------------------------------------------------|through
A|--2-------------------5---------7--------------------------------|the verse
E|--0----------------3---------5-----------------------------------|

   When I walk on by, girls be looking like...
    E                 G         A          B
e|--------------------------------------|--------------------------|
B|--------------------------------------|--------------------------|
G|--1-------------------4---------6-----|--8--8--8--8--8-----------|
D|--2-----------------------------------|--------------------------|
A|--2-------------------5---------7-----|--9--9--9--9--9-----------|
E|--0----------------3---------5--------|--7--7--7--7--7-----------|

       Oh-oh girl, look at that body (x3)  I___________ work out.

    E                            G           A        B
e|---------------------------------------------------|-------------|
B|---------------------------------------------------|-------------|
G|--1---1-1---1-1---1-1----------4-4-4-4-----6-6-6-6-|8--8--8--8--8|
D|--2---2-2---2-2---2-2------------------------------|-------------|  
A|--2---2-2---2-2---2-2----------5-5-5-5-----7-7-7-7-|9--9--9--9--9|   
E|--0---0-0---0-0---0-0----------3-3-3-3-----5-5-5-5-|7--7--7--7--7|
                           (x3)                        (on 3rd time)
              When I walk in the spot, this is what I see... I'm sexy and I know it...


************************************

| /   slide up
| \   slide down
| h   hammer-on
| p   pull-off
| ~   vibrato
| +   harmonic
| x   Mute note
| b   Bend
| pb  Pre-bend
| br  Bend release
| pbr Pre-bend release
| brb Bend release bend

************************************
Tap to rate this tab
# A B C D E F G H I J K L M N O P Q R S T U V W X Y Z