Song name
# A B C D E F G H I J K L M N O P Q R S T U V W X Y Z

Onslaught - Thermonuclear Devastation tab

Band:  Onslaught
Album: Power From Hell
Song:  Thermo Nuclear Devastation

http://www.onslaughtfromhell.com/

Copyright (c)  (Under One Flag) (1987)
Version 1.0 - (19/04/06)

Transcribed By: Steve
Email:          stephen.elvidge1@ntlworld.com


.  - palm mute           /  - slide up to
\  - slide down to       ~  - vibrato
h  - hammer on           b  - Bend
p  - pull off            Suffixes for bend
t  - tap                 f  - full bend    h - half bend
ph - pinched harmonic    q  - quarter bend t - tap bend
*  - see comment         ^  - Hold bend    r release bend
x  - Stuccatto           ~  - vibrato bend
,  - slight palm mute    () - ghost note, sustained note
"  - tremolo note        <> - harmonic

Tunning E A D G B E
 
 Intro


  Guitar 1
E[-------------------------------------------------|
B[-------------------------------------------------|
G[-7-7-7-------7-7-7-------7-7-7-------7-7-7-------|
D[-7-7-7-8\5-5-7-7-7-8\5-5-7-7-7-8\5-5-7-7-7-8\5-5-|
A[-5-5-5-8\5-5-5-5-5-8\5-5-5-5-5-8\5-5-5-5-5-8\5-5-|
E[-------6\3-3-------6\3-3-------6\3-3-------6\3-3-|
 [Guitar 2
E[-------------------------------------------------|
B[-------------------------------------------------|
G[-------------7\----------7\----------7\----------|
D[-------------7\----------7\----------7\----------|
A[-------------5\----------5\----------5\----------|
E[-------------------------------------------------|

 Main Riff

E-------------------------------------------------|
B-------------------------------------------------|
G-7-7-7-------7-7-7-------7-7-7-------7-7-7-------|
D-7-7-7-8\5-5-7-7-7-8\5-5-7-7-7-8\5-5-7-7-7-8\5-5-|
A-5-5-5-8\5-5-5-5-5-8\5-5-5-5-5-8\5-5-5-5-5-8\5-5-|
E-------6\3-3-------6\3-3-------6\3-3-------6\3-3-| Rpt 4 X

 Verse


E-------------------------------------------------|
B-------------------------------------------------|
G-7-7-7-------7-7-7-------7-7-7-------7-7-7-------|
D-7-7-7-8\5-5-7-7-7-8\5-5-7-7-7-8\5-5-7-7-7-8\5-5-|
A-5-5-5-8\5-5-5-5-5-8\5-5-5-5-5-8\5-5-5-5-5-8\5-5-|
E-------6\3-3-------6\3-3-------6\3-3-------6\3-3-| Rpt 8 X

 Chorus

E-----------------|
B-----------------|
G-----------------|
D-4-4/5-5\4-4\3-3-|
A-2-2/3-3\2-2\1-1-|
E-----------------| Rpt 4 X

 Rpt Verse
 Rpt Chorus

 Guitar solo

 Backing is main riff 8 X

      h     h        h                                   ~~~~~~~~~~~
E-13-15p13-15p13-10-13p10-------------------------------------------|
B-------------------------10----------------------------------------|
G----------------------------12b10-12b10-12b10----------------------|
D----------------------------------------------12-10-12-------------|
A-------------------------------------------------------------------|
E-------------------------------------------------------5-----------|

 with wah
     h   h   h   h     h   h   h   h   h   h       
E-------------------------------------------------------------------|
B-------------------------------------------------------------------|
G-/5-7p5-7p5-7p5-7p5------------------------------------------------|
D--------------------5-7p5-7p5-7p5-7p5-7p5-7p5-7b---------trem dive-|
A-------------------------------------------------------------------|
E-------------------------------------------------------------------|

 Rpt Main Riff 4 X
 Rpt Verse
 Rpt Chorus

E--------|
B--------|
G-7\-----|
D-7\-----|
A-5\-----|
E--------|



END

Tap to rate this tab
 
# A B C D E F G H I J K L M N O P Q R S T U V W X Y Z