Song name
# A B C D E F G H I J K L M N O P Q R S T U V W X Y Z

Onward To Olympas - This World Is Not My Home tab

song: This World Is Not My Home
band: Onward To Olympas
album: This World Is Not My Home

. - Palm mute
* - Pinch harmonic
\ - Slide down
/ - Slide up

my first tab, so take it easy on me 

here's my video of me playing it
http://www.youtube.com/watch?v=8ndF6yhtths




intro   
|---------------------|
|---------------------|
|---------------------|
|---0--------0--------|
|---0--------0--------|
|---0--------0--------|
let each note ring

     
verse 
|----------------------------------|   |---------------------------------|
|----------------------------------|   |---------------------------------|
|----------------------------------|x3 |---------------------------------|  
|-----5-----3-----5-----3-----3h5--|   |-----5-----3-----5-----3---------|
|-0-0-5-0-0-3-0-0-5-0-0-3-0-0-3h5--|   |-0-0-5-0-0-3-0-0-5-0-0-3-0-0-3*--|
|-0-0-5-0-0-3-0-0-5-0-0-3-0-0-3h5--|   |-0-0-5-0-0-3-0-0-5-0-0-3-0-0-----|
  . .   . .   . .   . .   . .           . .   . .   . .   . .   . .

|-----------------------------------|
|-----------------------------------|
|-----------------------------------|x3
|------5-----3-----5-----3-----3h5--|
|--0-0-5-0-0-3-0-0-5-0-0-3-0-0-3h5--|
|--0-0-5-0-0-3-0-0-5-0-0-3-0-0-3h5--|
   . .   . .   . .   . .   . .

|-----------------------------------------------------------|
|-----------------------------------------------------------|
|-----------------------------------------------------------|
|------5-----3-----5-------------------------0-0-0-0-\\-//--|
|--0-0-5-0-0-3-0-0-5-0-0-0-0-0-0-0-0-0-0-0-0-0-0-0-0-\\-//--|
|--0-0-5-0-0-3-0-0-5-0-0-0-0-0-0-0-0-0-0-0-0-0-0-0-0-\\-//--|
   . .   . .   . .   . . . . . . . . . . . . 


Chorus
|---------------------------|
|---------------------------|
|---------------------------|x2
|--9----12----12/7----7\14--|
|--9----12----12/7----7\14--|
|--9----12----12/7----7\14--|
let each note ring

|------------------------------|
|------------------------------|
|------------------------------|
|---0--------0------//---------|
|---0--------0------//---------|
|---0--------0------//---------|
let each note ring


verse 
|----------------------------------|   |---------------------------------|
|----------------------------------|   |---------------------------------|
|----------------------------------|x3 |---------------------------------|  
|-----5-----3-----5-----3-----3h5--|   |-----5-----3-----5-----3---------|
|-0-0-5-0-0-3-0-0-5-0-0-3-0-0-3h5--|   |-0-0-5-0-0-3-0-0-5-0-0-3-0-0-3*--|
|-0-0-5-0-0-3-0-0-5-0-0-3-0-0-3h5--|   |-0-0-5-0-0-3-0-0-5-0-0-3-0-0-----|
  . .   . .   . .   . .   . .           . .   . .   . .   . .   . .

|-----------------------------------|
|-----------------------------------|
|-----------------------------------|x3
|------5-----3-----5-----3-----3h5--|
|--0-0-5-0-0-3-0-0-5-0-0-3-0-0-3h5--|
|--0-0-5-0-0-3-0-0-5-0-0-3-0-0-3h5--|
   . .   . .   . .   . .   . .

|-----------------------------------------------------------|
|-----------------------------------------------------------|
|-----------------------------------------------------------|
|------5-----3-----5-------------------------0-0-0-0-\\-//--|
|--0-0-5-0-0-3-0-0-5-0-0-0-0-0-0-0-0-0-0-0-0-0-0-0-0-\\-//--|
|--0-0-5-0-0-3-0-0-5-0-0-0-0-0-0-0-0-0-0-0-0-0-0-0-0-\\-//--|
   . .   . .   . .   . . . . . . . . . . . . 


Chorus
|---------------------------|   |----------------------|
|---------------------------|   |----------------------|
|---------------------------|x2 |----------------------|
|--9----12----12/7----7\14--|   |--9----12----7----14--|
|--9----12----12/7----7\14--|   |--9----12----7----14--|
|--9----12----12/7----7\14--|   |--9----12----7----14--|
let each note ring

breakdown
|-------------------------------------------|
|-------------------------------------------|
|-------------------------------------------|
|-----------------------------------0-------|
|--0-0-0-0----0-0-0-0----0-0-0-0----0-------|
|--0-0-0-0----0-0-0-0----0-0-0-0----0-------|
pm . . . .    . . . .    . . . .    .

|-----------------------------------------------------|
|-----------------------------------------------------|
|-----------------------------------------------------|x2
|-----------------------------------------------------|
|--0-0-0-0-000--0-0-0-0-0--0-0-0-0-000-0000-00000000--|
|--0-0-0-0-000--0-0-0-0-0--0-0-0-0-000-0000-00000000--|
pm . . . . ...  . . . . .  . . . . ... .... ........

|-----------------------------------------------------|
|-----------------------------------------------------|
|-----------------------------------------------------|x2
|-----------------------------------------------------|
|--1-1-1-1-111--1-1-1-1-1--1-1-1-1-111-1111-11111111--|
|--2-2-2-2-222--2-2-2-2-2--2-2-2-2-222-2222-22222222--|
pm . . . . ...  . . . . .  . . . . ... .... ........


outro    clean
|---------------------------------------------------------------------------|
|---------------------------------------------------------------------------|
|---------------------------------------------------------------------------|
|------3---------3--------3---------3-------5---------5-------7---------7---|
|--5-5---5-5-5-5---5--3-3---3-3-3-3---3-3-3---3-3-3-3---3-5-5---5-5-5-5---5-|
|---------------------------------------------------------------------------|
repeat untill song ends
Tap to rate this tab
 
# A B C D E F G H I J K L M N O P Q R S T U V W X Y Z