Song name
# A B C D E F G H I J K L M N O P Q R S T U V W X Y Z

Oomph - Beim Ersten Mal Tuts Immer Weh tab

Oomph!

Beim ersten mal tutīs immer weh

Tabbed by Michel Franceschino

The Notes are right but the rythm you have to figure out yourself.

Have fun!!!

INTRO x2 (00:14 – 00:27)
e|----------------------------------|
B|----------------------------------|
G|----------------------------------|
D|-5--5-5-6—5-----8--5-5-6-5--------|
A|-5--5-5-6-5-----8--5-5-6—5--------|
D|-5--5-5-6-5-----8--5-5-6-5--------|

e|----------------------------------|
B|----------------------------------|
G|----------------------------------|
D|-5--5-5-6—5-----8--5-5-6-5-6-5----|
A|-5--5-5-6-5-----8--5-5-6—5-6-5----|
D|-5--5-5-6-5-----8--5-5-6-5-6-5----|


Verse (00:27 – 00:53)
e|------------------------------|
B|------------------------------|
G|------------------------------|
D|--5-5-6—5------5-5-6-5--------|
A|--5-5-6-5------5-5-6—5--------|
D|--5-5-6-5------5-5-6-5--------|



Chorus x4 (00:53 – 01:18)
e|---------------------------------------------|
B|---------------------------------------------|
G|---------------------------------------------|
D|-5-5-5—5-13-13-13-13-15-15-15-15-10-10-10-10-|
A|-5-5-5-5-13-13-13-13-15-15-15-15-10-10-10—10-|
D|-5-5-5-5-13-13-13-13-15-15-15-15-10-10-10-10-|

Intro x2

Verse

Chorus x4

Bridge (02:16 - 02-41)

e|-------------------------------|
B|-------------------------------|
G|-------------------------------|
D|---5-5-6—5------5-5-6-5--------|
A|---5-5-6-5------5-5-6—5--------|
D|---5-5-6-5------5-5-6-5--------|

e|-------------------------------|
B|-------------------------------|
G|-------------------------------|
D|-5---5-5-6—5----5---5-5-6-5----|
A|-5---5-5-6-5----5---5-5-6—5----|
D|-5---5-5-6-5----5—--5-5-6-5----|




e|----------------------------------|
B|----------------------------------|
G|----------------------------------|
D|-5--5-5-6—5-----8--5-5-6-5--------|
A|-5--5-5-6-5-----8--5-5-6—5--------|
D|-5--5-5-6-5-----8--5-5-6-5--------|

e|----------------------------------|
B|----------------------------------|
G|----------------------------------|
D|-5--5-5-6—5-----8--5-5-6-5-6-5----|
A|-5--5-5-6-5-----8--5-5-6—5-6-5----|
D|-5--5-5-6-5-----8--5-5-6-5-6-5----|

e|----------------------------------|
B|----------------------------------|
G|----------------------------------|
D|-5--5-5-6—5-----8--5-5-6-5--------|
A|-5--5-5-6-5-----8--5-5-6—5--------|
D|-5--5-5-6-5-----8--5-5-6-5--------|

e|----------------------------------|
B|----------------------------------|
G|----------------------------------|
D|-5--5-5-6—5-----8--5-5-6-5--------|
A|-5--5-5-6-5-----8--5-5-6—5--------|
D|-5--5-5-6-5-----8--5-5-6-5--------|


Chorus - repeat till you are dead
Tap to rate this tab
# A B C D E F G H I J K L M N O P Q R S T U V W X Y Z