Song name
# A B C D E F G H I J K L M N O P Q R S T U V W X Y Z

Oomph - Labyrinth tab

Oomph!
Labyrinth
Monster (2008)

Intro

e|----------------------------------------------------------------|
B|----------------------------------------------------------------|
G|----------------------------------------------------------------|
D|----------------------------------------------------------------|
A|----------------------------------------------------------------|
D|3---3---3---3---0---0---0---0---2---2---2---2---0---0---0---0---|

e|----------------------------------------------------------------|
B|----------------------------------------------------------------|
G|----------------------------------------------------------------|
D|----------------------------------------------------------------|
A|----------------------------------------------------------------|
D|3---3---3---3---0---0---0---0---2---2---2---2---0---0---0---0---|

e|----------------------------------------------------------------|
B|----------------------------------------------------------------|
G|----------------------------------------------------------------|
D|7-7-7-7-7-7-9-9-2-2-2-2-2-2-5-5-3-3-3-3-3-3-2-2-0-0-0-0-0-0-2-2-|
A|7-7-7-7-7-7-9-9-2-2-2-2-2-2-5-5-3-3-3-3-3-3-2-2-0-0-0-0-0-0-2-2-|
D|7-7-7-7-7-7-9-9-2-2-2-2-2-2-5-5-3-3-3-3-3-3-2-2-0-0-0-0-0-0-2-2-|

e|----------------------------------------------------------------|
B|----------------------------------------------------------------|
G|----------------------------------------------------------------|
D|7-7-7-7-7-7-9-9-2-2-2-2-2-2-5-5-3-3-3-3-3-3-2-2-0-0-0-0-0-0-2-2-|
A|7-7-7-7-7-7-9-9-2-2-2-2-2-2-5-5-3-3-3-3-3-3-2-2-0-0-0-0-0-0-2-2-|
D|7-7-7-7-7-7-9-9-2-2-2-2-2-2-5-5-3-3-3-3-3-3-2-2-0-0-0-0-0-0-2-2-|

Verse

e|----------------------------------------------------------------|
B|----------------------------------------------------------------|
G|----------------------------------------------------------------|
D|----------------------------------------------------------------|
A|----------------------------------------------------------------|
D|7-7-7-7-7-7-7-7-2-2-2-2-2-2-2-2-3-3-3-3-3-3-3-3-0-0-0-0-0-0-0-0-|

e|----------------------------------------------------------------|
B|----------------------------------------------------------------|
G|----------------------------------------------------------------|
D|----------------------------------------------------------------|
A|----------------------------------------------------------------|
D|7-7-7-7-7-7-7-7-2-2-2-2-2-2-2-2-3-3-3-3-3-3-3-3-0-0-0-0-0-0-0-0-|

e|----------------------------------------------------------------|
B|----------------------------------------------------------------|
G|----------------------------------------------------------------|
D|----------------------------------------------------------------|
A|----------------------------------------------------------------|
D|7-7-7-7-7-7-7-7-2-2-2-2-2-2-2-2-3-3-3-3-3-3-3-3-0-0-0-0-0-0-0-0-|

e|----------------------------------------------------------------|
B|----------------------------------------------------------------|
G|----------------------------------------------------------------|
D|----------------------------------------------------------------|
A|----------------------------------------------------------------|
D|7-7-7-7-7-7-7-7-2-2-2-2-2-2-2-2-3-3-3-3-3-3-3-3-0-0-0-0-0-0-0-0-|

e|----------------------------------------------------------------|
B|----------------------------------------------------------------|
G|----------------------------------------------------------------|
D|----------------------------------------------------------------|
A|----------------------------------------------------------------|
D|3---3---3---3---0---0---0---0---2---2---2---2---0---0---0---0---|

e|----------------------------------------------------------------|
B|----------------------------------------------------------------|
G|----------------------------------------------------------------|
D|----------------------------------------------------------------|
A|----------------------------------------------------------------|
D|3---3---3---3---0---0---0---0---2---2---2---2---0---0---0---0---|

Chorus

e|----------------------------------------------------------------|
B|----------------------------------------------------------------|
G|----------------------------------------------------------------|
D|7-7-7-7-7-7-9-9-2-2-2-2-2-2-5-5-3-3-3-3-3-3-2-2-0-0-0-0-0-0-2-2-|
A|7-7-7-7-7-7-9-9-2-2-2-2-2-2-5-5-3-3-3-3-3-3-2-2-0-0-0-0-0-0-2-2-|
D|7-7-7-7-7-7-9-9-2-2-2-2-2-2-5-5-3-3-3-3-3-3-2-2-0-0-0-0-0-0-2-2-|

e|----------------------------------------------------------------|
B|----------------------------------------------------------------|
G|----------------------------------------------------------------|
D|7-7-7-7-7-7-9-9-2-2-2-2-2-2-5-5-3-3-3-3-3-3-2-2-0-0-0-0-0-0-2-2-|
A|7-7-7-7-7-7-9-9-2-2-2-2-2-2-5-5-3-3-3-3-3-3-2-2-0-0-0-0-0-0-2-2-|
D|7-7-7-7-7-7-9-9-2-2-2-2-2-2-5-5-3-3-3-3-3-3-2-2-0-0-0-0-0-0-2-2-|

e|----------------------------------------------------------------|
B|----------------------------------------------------------------|
G|----------------------------------------------------------------|
D|7-7-7-7-7-7-9-9-2-2-2-2-2-2-5-5-3-3-3-3-3-3-2-2-0-0-0-0-0-0-2-2-|
A|7-7-7-7-7-7-9-9-2-2-2-2-2-2-5-5-3-3-3-3-3-3-2-2-0-0-0-0-0-0-2-2-|
D|7-7-7-7-7-7-9-9-2-2-2-2-2-2-5-5-3-3-3-3-3-3-2-2-0-0-0-0-0-0-2-2-|

e|----------------------------------------------------------------|
B|----------------------------------------------------------------|
G|----------------------------------------------------------------|
D|7-7-7-7-7-7-9-9-2-2-2-2-2-2-5-5-3-3-3-3-3-3-2-2-0-0-0-0-0-0-2-2-|
A|7-7-7-7-7-7-9-9-2-2-2-2-2-2-5-5-3-3-3-3-3-3-2-2-0-0-0-0-0-0-2-2-|
D|7-7-7-7-7-7-9-9-2-2-2-2-2-2-5-5-3-3-3-3-3-3-2-2-0-0-0-0-0-0-2-2-|

Verse

e|----------------------------------------------------------------|
B|----------------------------------------------------------------|
G|----------------------------------------------------------------|
D|----------------------------------------------------------------|
A|----------------------------------------------------------------|
D|7-7-7-7-7-7-7-7-2-2-2-2-2-2-2-2-3-3-3-3-3-3-3-3-0-0-0-0-0-0-0-0-|

e|----------------------------------------------------------------|
B|----------------------------------------------------------------|
G|----------------------------------------------------------------|
D|----------------------------------------------------------------|
A|----------------------------------------------------------------|
D|7-7-7-7-7-7-7-7-2-2-2-2-2-2-2-2-3-3-3-3-3-3-3-3-0-0-0-0-0-0-0-0-|

e|----------------------------------------------------------------|
B|----------------------------------------------------------------|
G|----------------------------------------------------------------|
D|----------------------------------------------------------------|
A|----------------------------------------------------------------|
D|7-7-7-7-7-7-7-7-2-2-2-2-2-2-2-2-3-3-3-3-3-3-3-3-0-0-0-0-0-0-0-0-|

e|----------------------------------------------------------------|
B|----------------------------------------------------------------|
G|----------------------------------------------------------------|
D|----------------------------------------------------------------|
A|----------------------------------------------------------------|
D|7-7-7-7-7-7-7-7-2-2-2-2-2-2-2-2-3-3-3-3-3-3-3-3-0-0-0-0-0-0-0-0-|

e|----------------------------------------------------------------|
B|----------------------------------------------------------------|
G|----------------------------------------------------------------|
D|----------------------------------------------------------------|
A|----------------------------------------------------------------|
D|3---3---3---3---0---0---0---0---2---2---2---2---0---0---0---0---|

e|----------------------------------------------------------------|
B|----------------------------------------------------------------|
G|----------------------------------------------------------------|
D|----------------------------------------------------------------|
A|----------------------------------------------------------------|
D|3---3---3---3---0---0---0---0---2---2---2---2---0---0---0---0---|

Chorus

e|----------------------------------------------------------------|
B|----------------------------------------------------------------|
G|----------------------------------------------------------------|
D|7-7-7-7-7-7-9-9-2-2-2-2-2-2-5-5-3-3-3-3-3-3-2-2-0-0-0-0-0-0-2-2-|
A|7-7-7-7-7-7-9-9-2-2-2-2-2-2-5-5-3-3-3-3-3-3-2-2-0-0-0-0-0-0-2-2-|
D|7-7-7-7-7-7-9-9-2-2-2-2-2-2-5-5-3-3-3-3-3-3-2-2-0-0-0-0-0-0-2-2-|

e|----------------------------------------------------------------|
B|----------------------------------------------------------------|
G|----------------------------------------------------------------|
D|7-7-7-7-7-7-9-9-2-2-2-2-2-2-5-5-3-3-3-3-3-3-2-2-0-0-0-0-0-0-2-2-|
A|7-7-7-7-7-7-9-9-2-2-2-2-2-2-5-5-3-3-3-3-3-3-2-2-0-0-0-0-0-0-2-2-|
D|7-7-7-7-7-7-9-9-2-2-2-2-2-2-5-5-3-3-3-3-3-3-2-2-0-0-0-0-0-0-2-2-|

e|----------------------------------------------------------------|
B|----------------------------------------------------------------|
G|----------------------------------------------------------------|
D|7-7-7-7-7-7-9-9-2-2-2-2-2-2-5-5-3-3-3-3-3-3-2-2-0-0-0-0-0-0-2-2-|
A|7-7-7-7-7-7-9-9-2-2-2-2-2-2-5-5-3-3-3-3-3-3-2-2-0-0-0-0-0-0-2-2-|
D|7-7-7-7-7-7-9-9-2-2-2-2-2-2-5-5-3-3-3-3-3-3-2-2-0-0-0-0-0-0-2-2-|

e|----------------------------------------------------------------|
B|----------------------------------------------------------------|
G|----------------------------------------------------------------|
D|7-7-7-7-7-7-9-9-2-2-2-2-2-2-5-5-3-3-3-3-3-3-2-2-0-0-0-0-0-0-2-2-|
A|7-7-7-7-7-7-9-9-2-2-2-2-2-2-5-5-3-3-3-3-3-3-2-2-0-0-0-0-0-0-2-2-|
D|7-7-7-7-7-7-9-9-2-2-2-2-2-2-5-5-3-3-3-3-3-3-2-2-0-0-0-0-0-0-2-2-|

Bridge

e|----------------------------------------------------------------|
B|----------------------------------------------------------------|
G|----------------------------------------------------------------|
D|7---------------------------------------------------------------|
A|7---------------------------------------------------------------|
D|7---------------------------------------------------------------|

e|----------------------------------------------------------------|
B|----------------------------------------------------------------|
G|----------------------------------------------------------------|
D|7---------------------------------------------------------------|
A|7---------------------------------------------------------------|
D|7---------------------------------------------------------------|

e|----------------------------------------------------------------|
B|----------------------------------------------------------------|
G|----------------------------------------------------------------|
D|X---------------------------------------------------------------|
A|X---------------------------------------------------------------|
D|X---------------------------------------------------------------|

e|----------------------------------------------------------------|
B|----------------------------------------------------------------|
G|----------------------------------------------------------------|
D|X---------------------------------------------------------------|
A|X---------------------------------------------------------------|
D|X---------------------------------------------------------------|

Chorus

e|----------------------------------------------------------------|
B|----------------------------------------------------------------|
G|----------------------------------------------------------------|
D|7-7-7-7-7-7-9-9-2-2-2-2-2-2-5-5-3-3-3-3-3-3-2-2-0-0-0-0-0-0-2-2-|
A|7-7-7-7-7-7-9-9-2-2-2-2-2-2-5-5-3-3-3-3-3-3-2-2-0-0-0-0-0-0-2-2-|
D|7-7-7-7-7-7-9-9-2-2-2-2-2-2-5-5-3-3-3-3-3-3-2-2-0-0-0-0-0-0-2-2-|

e|----------------------------------------------------------------|
B|----------------------------------------------------------------|
G|----------------------------------------------------------------|
D|7-7-7-7-7-7-9-9-2-2-2-2-2-2-5-5-3-3-3-3-3-3-2-2-0-0-0-0-0-0-2-2-|
A|7-7-7-7-7-7-9-9-2-2-2-2-2-2-5-5-3-3-3-3-3-3-2-2-0-0-0-0-0-0-2-2-|
D|7-7-7-7-7-7-9-9-2-2-2-2-2-2-5-5-3-3-3-3-3-3-2-2-0-0-0-0-0-0-2-2-|

e|----------------------------------------------------------------|
B|----------------------------------------------------------------|
G|----------------------------------------------------------------|
D|7-7-7-7-7-7-9-9-2-2-2-2-2-2-5-5-3-3-3-3-3-3-2-2-0-0-0-0-0-0-2-2-|
A|7-7-7-7-7-7-9-9-2-2-2-2-2-2-5-5-3-3-3-3-3-3-2-2-0-0-0-0-0-0-2-2-|
D|7-7-7-7-7-7-9-9-2-2-2-2-2-2-5-5-3-3-3-3-3-3-2-2-0-0-0-0-0-0-2-2-|

e|----------------------------------------------------------------|
B|----------------------------------------------------------------|
G|----------------------------------------------------------------|
D|7-7-7-7-7-7-9-9-2-2-2-2-2-2-5-5-3-3-3-3-3-3-2-2-0-0-0-0-0-0-2-2-|
A|7-7-7-7-7-7-9-9-2-2-2-2-2-2-5-5-3-3-3-3-3-3-2-2-0-0-0-0-0-0-2-2-|
D|7-7-7-7-7-7-9-9-2-2-2-2-2-2-5-5-3-3-3-3-3-3-2-2-0-0-0-0-0-0-2-2-|

e|----------------------------------------------------------------|
B|----------------------------------------------------------------|
G|----------------------------------------------------------------|
D|7-7-7-7-7-7-9-9-2-2-2-2-2-2-5-5-3-3-3-3-3-3-2-2-0-0-0-0-0-0-2-2-|
A|7-7-7-7-7-7-9-9-2-2-2-2-2-2-5-5-3-3-3-3-3-3-2-2-0-0-0-0-0-0-2-2-|
D|7-7-7-7-7-7-9-9-2-2-2-2-2-2-5-5-3-3-3-3-3-3-2-2-0-0-0-0-0-0-2-2-|

e|----------------------------------------------------------------|
B|----------------------------------------------------------------|
G|----------------------------------------------------------------|
D|7-7-7-7-7-7-9-9-2-2-2-2-2-2-5-5-3-3-3-3-3-3-2-2-0-0-0-0-0-0-2-2-|
A|7-7-7-7-7-7-9-9-2-2-2-2-2-2-5-5-3-3-3-3-3-3-2-2-0-0-0-0-0-0-2-2-|
D|7-7-7-7-7-7-9-9-2-2-2-2-2-2-5-5-3-3-3-3-3-3-2-2-0-0-0-0-0-0-2-2-|

e|----------------------------------------------------------------|
B|----------------------------------------------------------------|
G|----------------------------------------------------------------|
D|7-7-7-7-7-7-9-9-2-2-2-2-2-2-5-5-3-3-3-3-3-3-2-2-0-0-0-0-0-0-2-2-|
A|7-7-7-7-7-7-9-9-2-2-2-2-2-2-5-5-3-3-3-3-3-3-2-2-0-0-0-0-0-0-2-2-|
D|7-7-7-7-7-7-9-9-2-2-2-2-2-2-5-5-3-3-3-3-3-3-2-2-0-0-0-0-0-0-2-2-|

e|----------------------------------------------------------------|
B|----------------------------------------------------------------|
G|----------------------------------------------------------------|
D|7-7-7-7-7-7-9-9-2-2-2-2-2-2-5-5-3-3-3-3-3-3-2-2-0-0-0-0-0-0-2-2-|
A|7-7-7-7-7-7-9-9-2-2-2-2-2-2-5-5-3-3-3-3-3-3-2-2-0-0-0-0-0-0-2-2-|
D|7-7-7-7-7-7-9-9-2-2-2-2-2-2-5-5-3-3-3-3-3-3-2-2-0-0-0-0-0-0-2-2-|

Coda

e|----------------------------------------------------------------|
B|----------------------------------------------------------------|
G|----------------------------------------------------------------|
D|----------------------------------------------------------------|
A|----------------------------------------------------------------|
D|3---3---3---3---0---0---0---0---2---2---2---2---0---0---0---0---|

e|----------------------------------------------------------------|
B|----------------------------------------------------------------|
G|----------------------------------------------------------------|
D|----------------------------------------------------------------|
A|----------------------------------------------------------------|
D|3---3---3---3---0---0---0---0---2---2---2---2---0---0---0---0---|
Tap to rate this tab
 
# A B C D E F G H I J K L M N O P Q R S T U V W X Y Z