Song name
# A B C D E F G H I J K L M N O P Q R S T U V W X Y Z

Oomph - Fieber tab

Verse: /

Chorus:
e|-----------------------------------|
h|-----------------------------------|  4x
g|-----------------------------------|
d|--7-7-7-7-7-7-7-7-3-3-3-3-5-5-5-5--|
a|--7-7-7-7-7-7-7-7-3-3-3-3-5-5-5-5--|
D|--7-7-7-7-7-7-7-7-3-3-3-3-5-5-5-5--|

Chorus #2:
e|-------------------|
h|-------------------|
g|-------------------|
d|--9-9-9-9-9-9-9-9--|
a|--9-9-9-9-9-9-9-9--|
D|--9-9-9-9-9-9-9-9--|

Verse: /

Chorus:
e|-----------------------------------|
h|-----------------------------------|  4x
g|-----------------------------------|
d|--7-7-7-7-7-7-7-7-3-3-3-3-5-5-5-5--|
a|--7-7-7-7-7-7-7-7-3-3-3-3-5-5-5-5--|
D|--7-7-7-7-7-7-7-7-3-3-3-3-5-5-5-5--|

Chorus #2:
e|-------------------|
h|-------------------|
g|-------------------|
d|--9-9-9-9-9-9-9-9--|
a|--9-9-9-9-9-9-9-9--|
D|--9-9-9-9-9-9-9-9--|

Verse: /

Chorus:
e|-----------------------------------|
h|-----------------------------------|  8x
g|-----------------------------------|
d|--7-7-7-7-7-7-7-7-3-3-3-3-5-5-5-5--|
a|--7-7-7-7-7-7-7-7-3-3-3-3-5-5-5-5--|
D|--7-7-7-7-7-7-7-7-3-3-3-3-5-5-5-5--|

Chorus #2:
e|-------------------|
h|-------------------|
g|-------------------|
d|--9-9-9-9-9-9-9-9--|
a|--9-9-9-9-9-9-9-9--|
D|--9-9-9-9-9-9-9-9--|
Tap to rate this tab
# A B C D E F G H I J K L M N O P Q R S T U V W X Y Z