Song name
# A B C D E F G H I J K L M N O P Q R S T U V W X Y Z

Oomph - Ich Will Dich Nie Mehr Sehn tab

Oomph! - Ich will dich nie mehr sehn
Album: Monster (Limited Edition, 2008)

4/4     |       Drop D


Intro is 2x Main Riff


Main Riff (4x)
E|----------------|----------------|
B|----------------|----------------|
G|----------------|----------------|
D|0-0-0-8-8-8-8-8-|3-3-3-5-5-5-5-5-|
A|0-0-0-8-8-8-8-8-|3-3-3-5-5-5-5-5-|
D|0-0-0-8-8-8-8-8-|3-3-3-5-5-5-5-5-|


Verse (8x)
E|----------------|----------------|
B|----------------|----------------|
G|----------------|----------------|
D|----------------|----------------|
A|0-0-0-8-8-8-8-8-|3-3-3-5-5-5-5-5-|
D|0-0-0-8-8-8-8-8-|3-3-3-5-5-5-5-5-|
  ...p.m...........................


Pre-Chorus (1x)
E|----------------|----------------|----------------|----------------|
B|----------------|----------------|----------------|----------------|
G|----------------|----------------|----------------|----------------|
D|0-0-0-1---1-----|1-1-1-0---0-----|0-0-0-1---1-----|1-1-1-0---------|
A|0-0-0-1---1-----|1-1-1-0---0-----|0-0-0-1---1-----|1-1-1-0---------|
D|0-0-0-1---1-----|1-1-1-0---0-----|0-0-0-1---1-----|1-1-1-0---------|


Then Play:

>Chorus (Main Riff) (4x)

>Verse (8x)

>Pre-Chorus (1x)

>Chorus (8x):
Play this only the 8th time:
E|----------------|----------------|
B|----------------|----------------|
G|----------------|----------------|
D|0-0-0-8-8-8-8-8-|3-3-3-5---5---5-|
A|0-0-0-8-8-8-8-8-|3-3-3-5---5---5-|
D|0-0-0-8-8-8-8-8-|3-3-3-5---5---5-|


Bridge
 [                               x3]
E|----------------|----------------|----------------|----------------|
B|----------------|----------------|----------------|----------------|
G|----------------|----------------|----------------|----------------|
D|----------------|----------------|----------------|----------------|
A|0-0-0-0-1-1-1-1-|0-0-0-0-1-1---1-|0-0-0-0-1-1-1-1-|0-0-0-0-X-X-X-X-|
D|0-0-0-0-1-1-1-1-|0-0-0-0-1-1---1-|0-0-0-0-1-1-1-1-|0-0-0-0-X-X-X-X-|
  ...p.m........................... ...p.m...................

 [                               x3]
E|----------------|----------------|----------------|----------------|
B|----------------|----------------|----------------|----------------|
G|----------------|----------------|----------------|----------------|
D|----------------|----------------|8-8-8-8-3-3-3-3-|5-5-5-5-1-1-1-1-|
A|0-0-0-0-1-1-1-1-|0-0-0-0-1-1---1-|8-8-8-8-3-3-3-3-|5-5-5-5-1-1-1-1-|
D|0-0-0-0-1-1-1-1-|0-0-0-0-1-1---1-|8-8-8-8-3-3-3-3-|5-5-5-5-1-1-1-1-|
  ...p.m...........................

E|----------------|----------------|----------------|----------------|
B|----------------|----------------|----------------|----------------|
G|----------------|----------------|----------------|----------------|
D|0---------------|----------------|----------------|----------------|
A|0---------------|----------------|----------------|----------------|
D|0---------------|----------------|----------------|----------------|
  ..let ring.........................................................

Then Play:

>Chorus (12x)
Tap to rate this tab
 
# A B C D E F G H I J K L M N O P Q R S T U V W X Y Z