Song name
# A B C D E F G H I J K L M N O P Q R S T U V W X Y Z

Oomph - Inri Vs Jahwe tab

Intro/Interlude:
(x4)
e|------------------------------------------------------------------|
B|------------------------------------------------------------------|
G|------------------------------------------------------------------|
D|0-0-7-0-5-0-4-0-2--0-7-0-5-0-4-0-2--0-7-0-5-0-4-0-2--0-7-0-5-0-4-2|
A|0-0-7-0-5-0-4-0-2--0-7-0-5-0-4-0-2--0-7-0-5-0-4-0-2--0-7-0-5-0-4-2|
E|0-0-5-0-3-0-2-0-0--0-5-0-3-0-2-0-0--0-5-0-3-0-2-0-0--0-5-0-3-0-2-0|

Verse riff 1:
e|---------------------------------------------------------|
B|---------------------------------------------------------|
G|---------------------------------------------------------|
D|0-0--------3--0-0--------5/6-0-0--------3--0-0--------5/6|
A|0-0--------3--0-0--------5/6-0-0--------3--0-0--------5/6|
E|0-0--------1--0-0--------3/4-0-0--------1--0-0--------3/4|

Verse riff 2:
e|-------------------------------------------------------------|
B|-------------------------------------------------------------|
G|-------------------------------------------------------------|
D|0-0----------3-0-0----------3-0-0----------3-0-0----------5/6|
A|0-0----------3-0-0----------3-0-0----------3-0-0----------5/6|
E|0-0-00-00-00-1-0-0-00-00-00-1-0-0-00-00-00-1-0-0-00-00-00-3/4|
PM    .. .. ..       .. .. ..       .. .. ..       .. .. ..  

Verse riff 3:
e|----------------------------------------------------------------|
B|----------------------------------------------------------------|
G|----------------------------------------------------------------|
D|0-0----------3-0-0----------3-0-0----------3-0-0-55-66-77-88-99-|
A|0-0----------3-0-0----------3-0-0----------3-0-0-55-66-77-88-99-|
E|0-0-00-00-00-1-0-0-00-00-00-1-0-0-00-00-00-1-0-0-33-44-55-66-77-|
PM    .. .. ..       .. .. ..       .. .. ..       

Pre-chorus riff 1:
e|--------------------------------------------------------------------|
B|--------------------------------------------------------------------|
G|--------------------------------------------------------------------|
D|9-9-9-9-8--7--0--9-9-9-9-8--7--0--9-9-9-9-8--7--0--9-9-9-9-8--7--0--|
A|9-9-9-9-8--7--0--9-9-9-9-8--7--0--9-9-9-9-8--7--0--9-9-9-9-8--7--0--|
E|7-7-7-7-6--5--0--7-7-7-7-6--5--0--7-7-7-7-6--5--0--7-7-7-7-6--5--0--|

Pre-chorus riff 2:
e|---------------------------------------------------------------------|
B|---------------------------------------------------------------------|
G|---------------------------------------------------------------------|
D|9-9-9-9-8--7--0--9-9-9-9-8--7--0--9-9-9-9-8--7--0--9-9-9-9-10-12-12--|
A|9-9-9-9-8--7--0--9-9-9-9-8--7--0--9-9-9-9-8--7--0--9-9-9-9-10-12-12--|
E|7-7-7-7-6--5--0--7-7-7-7-6--5--0--7-7-7-7-6--5--0--7-7-7-7-8--10-10--|
 
Chorus
(x8)
e|---------------------------------------------------------------|
B|---------------------------------------------------------------|
G|-------------------------1-----------------------1-1-1-1-1-1-1-|
D|2-2-2-2-2-2-2-2-2-2--4-5-2--2-2-2-2-2-2-2-2-2-2-2-2-2-2-2-2-2-|
A|2-2-2-2-2-2-2-2-2-2--4-5-2--2-2-2-2-2-2-2-2-2-2-2-2-2-2-2-2-2-|
E|0-0-0-0-0-0-0-0-0-0--2-3-0--0-0-0-0-0-0-0-0-0-0-0-0-0-0-0-0-0-|

Intro/Interlude:
(x4)
e|------------------------------------------------------------------|
B|------------------------------------------------------------------|
G|------------------------------------------------------------------|
D|0-0-7-0-5-0-4-0-2--0-7-0-5-0-4-0-2--0-7-0-5-0-4-0-2--0-7-0-5-0-4-2|
A|0-0-7-0-5-0-4-0-2--0-7-0-5-0-4-0-2--0-7-0-5-0-4-0-2--0-7-0-5-0-4-2|
E|0-0-5-0-3-0-2-0-0--0-5-0-3-0-2-0-0--0-5-0-3-0-2-0-0--0-5-0-3-0-2-0|

Verse riff 1:
e|---------------------------------------------------------|
B|---------------------------------------------------------|
G|---------------------------------------------------------|
D|0-0--------3--0-0--------5/6-0-0--------3--0-0--------5/6|
A|0-0--------3--0-0--------5/6-0-0--------3--0-0--------5/6|
E|0-0--------1--0-0--------3/4-0-0--------1--0-0--------3/4|

Verse riff 2:
e|-------------------------------------------------------------|
B|-------------------------------------------------------------|
G|-------------------------------------------------------------|
D|0-0----------3-0-0----------3-0-0----------3-0-0----------5/6|
A|0-0----------3-0-0----------3-0-0----------3-0-0----------5/6|
E|0-0-00-00-00-1-0-0-00-00-00-1-0-0-00-00-00-1-0-0-00-00-00-3/4|
PM    .. .. ..       .. .. ..       .. .. ..       .. .. ..  

Verse riff 3:
e|----------------------------------------------------------------|
B|----------------------------------------------------------------|
G|----------------------------------------------------------------|
D|0-0----------3-0-0----------3-0-0----------3-0-0-55-66-77-88-99-|
A|0-0----------3-0-0----------3-0-0----------3-0-0-55-66-77-88-99-|
E|0-0-00-00-00-1-0-0-00-00-00-1-0-0-00-00-00-1-0-0-33-44-55-66-77-|
PM    .. .. ..       .. .. ..       .. .. ..       

Pre-chorus riff 1:
e|--------------------------------------------------------------------|
B|--------------------------------------------------------------------|
G|--------------------------------------------------------------------|
D|9-9-9-9-8--7--0--9-9-9-9-8--7--0--9-9-9-9-8--7--0--9-9-9-9-8--7--0--|
A|9-9-9-9-8--7--0--9-9-9-9-8--7--0--9-9-9-9-8--7--0--9-9-9-9-8--7--0--|
E|7-7-7-7-6--5--0--7-7-7-7-6--5--0--7-7-7-7-6--5--0--7-7-7-7-6--5--0--|

Pre-chorus riff 2:
e|---------------------------------------------------------------------|
B|---------------------------------------------------------------------|
G|---------------------------------------------------------------------|
D|9-9-9-9-8--7--0--9-9-9-9-8--7--0--9-9-9-9-8--7--0--9-9-9-9-10-12-12--|
A|9-9-9-9-8--7--0--9-9-9-9-8--7--0--9-9-9-9-8--7--0--9-9-9-9-10-12-12--|
E|7-7-7-7-6--5--0--7-7-7-7-6--5--0--7-7-7-7-6--5--0--7-7-7-7-8--10-10--|
 
Chorus
(x8)
e|---------------------------------------------------------------|
B|---------------------------------------------------------------|
G|-------------------------1-----------------------1-1-1-1-1-1-1-|
D|2-2-2-2-2-2-2-2-2-2--4-5-2--2-2-2-2-2-2-2-2-2-2-2-2-2-2-2-2-2-|
A|2-2-2-2-2-2-2-2-2-2--4-5-2--2-2-2-2-2-2-2-2-2-2-2-2-2-2-2-2-2-|
E|0-0-0-0-0-0-0-0-0-0--2-3-0--0-0-0-0-0-0-0-0-0-0-0-0-0-0-0-0-0-|

Chorus
(x8)
e|---------------------------------------------------------------|
B|---------------------------------------------------------------|
G|-------------------------1-----------------------1-1-1-1-1-1-1-|
D|2-2-2-2-2-2-2-2-2-2--4-5-2--2-2-2-2-2-2-2-2-2-2-2-2-2-2-2-2-2-|
A|2-2-2-2-2-2-2-2-2-2--4-5-2--2-2-2-2-2-2-2-2-2-2-2-2-2-2-2-2-2-|
E|0-0-0-0-0-0-0-0-0-0--2-3-0--0-0-0-0-0-0-0-0-0-0-0-0-0-0-0-0-0-|

End
e|-----------------------------------------------------|
B|-----------------------------------------------------|
G|-----------------------------------------------------|
D|2-2---2-2---2-2---2-2---2-2---2-2---2-2---2-2---2-2--|
A|2-2---2-2---2-2---2-2---2-2---2-2---2-2---2-2---2-2--|
E|0-0---0-0---0-0---0-0---0-0---0-0---0-0---0-0---0-0--|
Tap to rate this tab
# A B C D E F G H I J K L M N O P Q R S T U V W X Y Z