Song name
# A B C D E F G H I J K L M N O P Q R S T U V W X Y Z

Oomph - Gott Ist Ein Popstar tab

Oomph!
Gott ist ein Popstar
Glaube, Lied, Tod

Because of that many wrong tabs, here is the right version:


Intro

e|--------------------------------|--------------------------------|
B|7-----6-------------------------|7-----6-------------------------|
G|---------4---2------------------|---------4---2------------------|
D|--------------------------------|--------------------------------|
A|--------------------------------|--------------------------------|
D|--------------------------------|--------------------------------| 

e|--------------------------------|--------------------------------|
B|7-----6-------------------------|7-----6-------------------------|
G|---------4---2------------------|---------4---2------------------|
D|--------------------------------|--------------------------------|
A|--------------------------------|--------------------------------|
D|--------------------------------|--------------------------------| 


1st Verse

No guitars

If you want to play something you can play this muting all:

e|--------------------------------|--------------------------------|
B|--------------------------------|--------------------------------|
G|--------------------------------|--------------------------------|
D|4-4-4-4-4-4-4-4-4-4-4-4-4-4-4-4-|4-4-4-4-4-4-4-4-4-4-4-4-4-4-4-4-|
A|4-4-4-4-4-4-4-4-4-4-4-4-4-4-4-4-|4-4-4-4-4-4-4-4-4-4-4-4-4-4-4-4-|
D|4-4-4-4-4-4-4-4-4-4-4-4-4-4-4-4-|4-4-4-4-4-4-4-4-4-4-4-4-4-4-4-4-| 8x


Bridge

e|--------------------------------|--------------------------------|
B|7-----6-------------------------|7-----6-------------------------|
G|---------4---2------------------|---------4---2------------------|
D|--------------------------------|--------------------------------|
A|--------------------------------|--------------------------------|
D|--------------------------------|--------------------------------| 

e|--------------------------------|
B|--------------------------------|
G|--------------------------------|
D|--------------------------------|
A|--------------------------------|
D|--------------------------------|


1st Chorus

e|--------------------------------|--------------------------------|
B|--------------------------------|--------------------------------|
G|--------------------------------|--------------------------------|
D|0-0-0-0-0-0-0-0-0-0-0-0-0-0-0-0-|9-9-9-9-9-9-9-9-9-9-9-9-9-9-9-9-|
A|0-0-0-0-0-0-0-0-0-0-0-0-0-0-0-0-|9-9-9-9-9-9-9-9-9-9-9-9-9-9-9-9-|
D|0-0-0-0-0-0-0-0-0-0-0-0-0-0-0-0-|9-9-9-9-9-9-9-9-9-9-9-9-9-9-9-9-|

e|--------------------------------|--------------------------------|
B|--------------------------------|--------------------------------|
G|--------------------------------|--------------------------------|
D|4-4-4-4-4-4-4-4-4-4-4-4-4-4-4-4-|7-7-7-7-7-7-7-7-7-7-7-7-7-7-7-7-|
A|4-4-4-4-4-4-4-4-4-4-4-4-4-4-4-4-|7-7-7-7-7-7-7-7-7-7-7-7-7-7-7-7-|
D|4-4-4-4-4-4-4-4-4-4-4-4-4-4-4-4-|7-7-7-7-7-7-7-7-7-7-7-7-7-7-7-7-|


e|--------------------------------|--------------------------------|
B|--------------------------------|--------------------------------|
G|--------------------------------|--------------------------------|
D|0-0-0-0-0-0-0-0-0-0-0-0-0-0-0-0-|9-9-9-9-9-9-9-9-9-9-9-9-9-9-9-9-|
A|0-0-0-0-0-0-0-0-0-0-0-0-0-0-0-0-|9-9-9-9-9-9-9-9-9-9-9-9-9-9-9-9-|
D|0-0-0-0-0-0-0-0-0-0-0-0-0-0-0-0-|9-9-9-9-9-9-9-9-9-9-9-9-9-9-9-9-|

e|--------------------------------|--------------------------------|
B|--------------------------------|--------------------------------|
G|6-6-6-6-6-6-6-6-6-6-6-6-6-6-6-6-|9-9-9-9-9-9-9-9-9-9-9-9-9-9-9-9-|
D|6-6-6-6-6-6-6-6-6-6-6-6-6-6-6-6-|9-9-9-9-9-9-9-9-9-9-9-9-9-9-9-9-|
A|4-4-4-4-4-4-4-4-4-4-4-4-4-4-4-4-|7-7-7-7-7-7-7-7-7-7-7-7-7-7-7-7-|
D|--------------------------------|--------------------------------|

e|--------------------------------|--------------------------------|
B|--------------------------------|--------------------------------|
G|--------------------------------|--------------------------------|
D|0-0-0-0-0-0-0-0-0-0-0-0-0-0-0-0-|9-9-9-9-9-9-9-9-9-9-9-9-9-9-9-9-|
A|0-0-0-0-0-0-0-0-0-0-0-0-0-0-0-0-|9-9-9-9-9-9-9-9-9-9-9-9-9-9-9-9-|
D|0-0-0-0-0-0-0-0-0-0-0-0-0-0-0-0-|9-9-9-9-9-9-9-9-9-9-9-9-9-9-9-9-|

e|--------------------------------|--------------------------------|
B|--------------------------------|--------------------------------|
G|--------------------------------|--------------------------------|
D|4-4-4-4-4-4-4-4-4-4-4-4-4-4-4-4-|7-7-7-7-7-7-7-7-7-7-7-7-7-7-7-7-|
A|4-4-4-4-4-4-4-4-4-4-4-4-4-4-4-4-|7-7-7-7-7-7-7-7-7-7-7-7-7-7-7-7-|
D|4-4-4-4-4-4-4-4-4-4-4-4-4-4-4-4-|7-7-7-7-7-7-7-7-7-7-7-7-7-7-7-7-|


e|--------------------------------|--------------------------------|
B|--------------------------------|--------------------------------|
G|--------------------------------|--------------------------------|
D|0-0-0-0-0-0-0-0-0-0-0-0-0-0-0-0-|9-9-9-9-9-9-9-9-9-9-9-9-9-9-9-9-|
A|0-0-0-0-0-0-0-0-0-0-0-0-0-0-0-0-|9-9-9-9-9-9-9-9-9-9-9-9-9-9-9-9-|
D|0-0-0-0-0-0-0-0-0-0-0-0-0-0-0-0-|9-9-9-9-9-9-9-9-9-9-9-9-9-9-9-9-|

e|--------------------------------|--------------------------------|
B|--------------------------------|--------------------------------|
G|6-6-6-6-6-6-6-6-6-6-6-6-6-6-6-6-|9-9-9-9-9-9-9-9-9-9-9-9-9-9-9-9-|
D|6-6-6-6-6-6-6-6-6-6-6-6-6-6-6-6-|9-9-9-9-9-9-9-9-9-9-9-9-9-9-9-9-|
A|4-4-4-4-4-4-4-4-4-4-4-4-4-4-4-4-|7-7-7-7-7-7-7-7-7-7-7-7-7-7-7-7-|
D|--------------------------------|--------------------------------|


2nd Verse

e|--------------------------------|--------------------------------|
B|--------------------------------|--------------------------------|
G|--------------------------------|--------------------------------|
D|4-4-4-4-4-4-4-4-4-4-4-4-4-4-4-4-|4-4-4-4-4-4-4-4-4-4-4-4-4-4-4-4-|
A|4-4-4-4-4-4-4-4-4-4-4-4-4-4-4-4-|4-4-4-4-4-4-4-4-4-4-4-4-4-4-4-4-|
D|4-4-4-4-4-4-4-4-4-4-4-4-4-4-4-4-|4-4-4-4-4-4-4-4-4-4-4-4-4-4-4-4-| 8x

Bridge

e|--------------------------------|--------------------------------|
B|7-----6-------------------------|7-----6-------------------------|
G|---------4---2------------------|---------4---2------------------|
D|--------------------------------|--------------------------------|
A|--------------------------------|--------------------------------|
D|--------------------------------|--------------------------------| 

e|--------------------------------|
B|--------------------------------|
G|--------------------------------|
D|--------------------------------|
A|--------------------------------|
D|--------------------------------|



2nd Chorus

e|--------------------------------|--------------------------------|
B|--------------------------------|--------------------------------|
G|--------------------------------|--------------------------------|
D|0-0-0-0-0-0-0-0-0-0-0-0-0-0-0-0-|9-9-9-9-9-9-9-9-9-9-9-9-9-9-9-9-|
A|0-0-0-0-0-0-0-0-0-0-0-0-0-0-0-0-|9-9-9-9-9-9-9-9-9-9-9-9-9-9-9-9-|
D|0-0-0-0-0-0-0-0-0-0-0-0-0-0-0-0-|9-9-9-9-9-9-9-9-9-9-9-9-9-9-9-9-|

e|--------------------------------|--------------------------------|
B|--------------------------------|--------------------------------|
G|--------------------------------|--------------------------------|
D|4-4-4-4-4-4-4-4-4-4-4-4-4-4-4-4-|7-7-7-7-7-7-7-7-7-7-7-7-7-7-7-7-|
A|4-4-4-4-4-4-4-4-4-4-4-4-4-4-4-4-|7-7-7-7-7-7-7-7-7-7-7-7-7-7-7-7-|
D|4-4-4-4-4-4-4-4-4-4-4-4-4-4-4-4-|7-7-7-7-7-7-7-7-7-7-7-7-7-7-7-7-|


e|--------------------------------|--------------------------------|
B|--------------------------------|--------------------------------|
G|--------------------------------|--------------------------------|
D|0-0-0-0-0-0-0-0-0-0-0-0-0-0-0-0-|9-9-9-9-9-9-9-9-9-9-9-9-9-9-9-9-|
A|0-0-0-0-0-0-0-0-0-0-0-0-0-0-0-0-|9-9-9-9-9-9-9-9-9-9-9-9-9-9-9-9-|
D|0-0-0-0-0-0-0-0-0-0-0-0-0-0-0-0-|9-9-9-9-9-9-9-9-9-9-9-9-9-9-9-9-|

e|--------------------------------|--------------------------------|
B|--------------------------------|--------------------------------|
G|6-6-6-6-6-6-6-6-6-6-6-6-6-6-6-6-|9-9-9-9-9-9-9-9-9-9-9-9-9-9-9-9-|
D|6-6-6-6-6-6-6-6-6-6-6-6-6-6-6-6-|9-9-9-9-9-9-9-9-9-9-9-9-9-9-9-9-|
A|4-4-4-4-4-4-4-4-4-4-4-4-4-4-4-4-|7-7-7-7-7-7-7-7-7-7-7-7-7-7-7-7-|
D|--------------------------------|--------------------------------|

e|--------------------------------|--------------------------------|
B|--------------------------------|--------------------------------|
G|--------------------------------|--------------------------------|
D|0-0-0-0-0-0-0-0-0-0-0-0-0-0-0-0-|9-9-9-9-9-9-9-9-9-9-9-9-9-9-9-9-|
A|0-0-0-0-0-0-0-0-0-0-0-0-0-0-0-0-|9-9-9-9-9-9-9-9-9-9-9-9-9-9-9-9-|
D|0-0-0-0-0-0-0-0-0-0-0-0-0-0-0-0-|9-9-9-9-9-9-9-9-9-9-9-9-9-9-9-9-|

e|--------------------------------|--------------------------------|
B|--------------------------------|--------------------------------|
G|--------------------------------|--------------------------------|
D|4-4-4-4-4-4-4-4-4-4-4-4-4-4-4-4-|7-7-7-7-7-7-7-7-7-7-7-7-7-7-7-7-|
A|4-4-4-4-4-4-4-4-4-4-4-4-4-4-4-4-|7-7-7-7-7-7-7-7-7-7-7-7-7-7-7-7-|
D|4-4-4-4-4-4-4-4-4-4-4-4-4-4-4-4-|7-7-7-7-7-7-7-7-7-7-7-7-7-7-7-7-|


e|--------------------------------|--------------------------------|
B|--------------------------------|--------------------------------|
G|--------------------------------|--------------------------------|
D|0-0-0-0-0-0-0-0-0-0-0-0-0-0-0-0-|9-9-9-9-9-9-9-9-9-9-9-9-9-9-9-9-|
A|0-0-0-0-0-0-0-0-0-0-0-0-0-0-0-0-|9-9-9-9-9-9-9-9-9-9-9-9-9-9-9-9-|
D|0-0-0-0-0-0-0-0-0-0-0-0-0-0-0-0-|9-9-9-9-9-9-9-9-9-9-9-9-9-9-9-9-|

e|--------------------------------|--------------------------------|
B|--------------------------------|--------------------------------|
G|6-6-6-6-6-6-6-6-6-6-6-6-6-6-6-6-|9-9-9-9-9-9-9-9-9-9-9-9-9-9-9-9-|
D|6-6-6-6-6-6-6-6-6-6-6-6-6-6-6-6-|9-9-9-9-9-9-9-9-9-9-9-9-9-9-9-9-|
A|4-4-4-4-4-4-4-4-4-4-4-4-4-4-4-4-|7-7-7-7-7-7-7-7-7-7-7-7-7-7-7-7-|
D|--------------------------------|--------------------------------|


C-Part

e|--------------------------------|--------------------------------|
B|--------------------------------|--------------------------------|
G|--------------------------------|--------------------------------|
D|9-9-9-9-9-9-9-9-9-9-9-9-9-9-9-9-|9-9-9-9-9-9-9-9-9-9-9-9-9-9-9-9-|
A|9-9-9-9-9-9-9-9-9-9-9-9-9-9-9-9-|9-9-9-9-9-9-9-9-9-9-9-9-9-9-9-9-|
D|9-9-9-9-9-9-9-9-9-9-9-9-9-9-9-9-|9-9-9-9-9-9-9-9-9-9-9-9-9-9-9-9-|

e|--------------------------------|--------------------------------|
B|--------------------------------|--------------------------------|
G|--------------------------------|--------------------------------|
D|4-4-4-4-4-4-4-4-4-4-4-4-4-4-4-4-|4-4-4-4-4-4-4-4-4-4-4-4-4-4-4-4-|
A|4-4-4-4-4-4-4-4-4-4-4-4-4-4-4-4-|4-4-4-4-4-4-4-4-4-4-4-4-4-4-4-4-|
D|4-4-4-4-4-4-4-4-4-4-4-4-4-4-4-4-|4-4-4-4-4-4-4-4-4-4-4-4-4-4-4-4-|

e|--------------------------------|--------------------------------|
B|--------------------------------|--------------------------------|
G|--------------------------------|--------------------------------|
D|9-9-9-9-9-9-9-9-9-9-9-9-9-9-9-9-|9-9-9-9-9-9-9-9-9-9-9-9-9-9-9-9-|
A|9-9-9-9-9-9-9-9-9-9-9-9-9-9-9-9-|9-9-9-9-9-9-9-9-9-9-9-9-9-9-9-9-|
D|9-9-9-9-9-9-9-9-9-9-9-9-9-9-9-9-|9-9-9-9-9-9-9-9-9-9-9-9-9-9-9-9-|

e|--------------------------------|--------------------------------|
B|--------------------------------|--------------------------------|
G|--------------------------------|--------------------------------|
D|4-4-4-4-4-4-4-4-4-4-4-4-4-4-4-4-|4-4-4-4-4-4-4-4-4-4-4-4-4-4-4-4-|
A|4-4-4-4-4-4-4-4-4-4-4-4-4-4-4-4-|4-4-4-4-4-4-4-4-4-4-4-4-4-4-4-4-|
D|4-4-4-4-4-4-4-4-4-4-4-4-4-4-4-4-|4-4-4-4-4-4-4-4-4-4-4-4-4-4-4-4-|

e|--------------------------------|--------------------------------|
B|--------------------------------|--------------------------------|
G|--------------------------------|--------------------------------|
D|9-9-9-9-9-9-9-9-9-9-9-9-9-9-9-9-|9-9-9-9-9-9-9-9-9-9-9-9-9-9-9-9-|
A|9-9-9-9-9-9-9-9-9-9-9-9-9-9-9-9-|9-9-9-9-9-9-9-9-9-9-9-9-9-9-9-9-|
D|9-9-9-9-9-9-9-9-9-9-9-9-9-9-9-9-|9-9-9-9-9-9-9-9-9-9-9-9-9-9-9-9-|

e|--------------------------------|--------------------------------|
B|--------------------------------|--------------------------------|
G|--------------------------------|--------------------------------|
D|4-4-4-4-4-4-4-4-4-4-4-4-4-4-4-4-|4-4-4-4-4-4-4-4-4-4-4-4-4-4-4-4-|
A|4-4-4-4-4-4-4-4-4-4-4-4-4-4-4-4-|4-4-4-4-4-4-4-4-4-4-4-4-4-4-4-4-|
D|4-4-4-4-4-4-4-4-4-4-4-4-4-4-4-4-|4-4-4-4-4-4-4-4-4-4-4-4-4-4-4-4-|

e|--------------------------------|--------------------------------|
B|--------------------------------|--------------------------------|
G|--------------------------------|--------------------------------|
D|9-9-9-9-9-9-9-9-9-9-9-9-9-9-9-9-|9-9-9-9-9-9-9-9-9-9-9-9-9-9-9-9-|
A|9-9-9-9-9-9-9-9-9-9-9-9-9-9-9-9-|9-9-9-9-9-9-9-9-9-9-9-9-9-9-9-9-|
D|9-9-9-9-9-9-9-9-9-9-9-9-9-9-9-9-|9-9-9-9-9-9-9-9-9-9-9-9-9-9-9-9-|

e|--------------------------------|--------------------------------|
B|--------------------------------|--------------------------------|
G|--------------------------------|--------------------------------|
D|4-4-4-4-4-4-4-4-4-4-4-4-4-4-4-4-|4-4-4-4-4-4-4-4-4-4-4-4-4-4-4-4-|
A|4-4-4-4-4-4-4-4-4-4-4-4-4-4-4-4-|4-4-4-4-4-4-4-4-4-4-4-4-4-4-4-4-|
D|4-4-4-4-4-4-4-4-4-4-4-4-4-4-4-4-|4-4-4-4-4-4-4-4-4-4-4-4-4-4-4-4-|


3rd Chorus

e|--------------------------------|--------------------------------|
B|--------------------------------|--------------------------------|
G|--------------------------------|--------------------------------|
D|0-0-0-0-0-0-0-0-0-0-0-0-0-0-0-0-|9-9-9-9-9-9-9-9-9-9-9-9-9-9-9-9-|
A|0-0-0-0-0-0-0-0-0-0-0-0-0-0-0-0-|9-9-9-9-9-9-9-9-9-9-9-9-9-9-9-9-|
D|0-0-0-0-0-0-0-0-0-0-0-0-0-0-0-0-|9-9-9-9-9-9-9-9-9-9-9-9-9-9-9-9-|

e|--------------------------------|--------------------------------|
B|--------------------------------|--------------------------------|
G|--------------------------------|--------------------------------|
D|4-4-4-4-4-4-4-4-4-4-4-4-4-4-4-4-|7-7-7-7-7-7-7-7-7-7-7-7-7-7-7-7-|
A|4-4-4-4-4-4-4-4-4-4-4-4-4-4-4-4-|7-7-7-7-7-7-7-7-7-7-7-7-7-7-7-7-|
D|4-4-4-4-4-4-4-4-4-4-4-4-4-4-4-4-|7-7-7-7-7-7-7-7-7-7-7-7-7-7-7-7-|


e|--------------------------------|--------------------------------|
B|--------------------------------|--------------------------------|
G|--------------------------------|--------------------------------|
D|0-0-0-0-0-0-0-0-0-0-0-0-0-0-0-0-|9-9-9-9-9-9-9-9-9-9-9-9-9-9-9-9-|
A|0-0-0-0-0-0-0-0-0-0-0-0-0-0-0-0-|9-9-9-9-9-9-9-9-9-9-9-9-9-9-9-9-|
D|0-0-0-0-0-0-0-0-0-0-0-0-0-0-0-0-|9-9-9-9-9-9-9-9-9-9-9-9-9-9-9-9-|

e|--------------------------------|--------------------------------|
B|--------------------------------|--------------------------------|
G|6-6-6-6-6-6-6-6-6-6-6-6-6-6-6-6-|9-9-9-9-9-9-9-9-9-9-9-9-9-9-9-9-|
D|6-6-6-6-6-6-6-6-6-6-6-6-6-6-6-6-|9-9-9-9-9-9-9-9-9-9-9-9-9-9-9-9-|
A|4-4-4-4-4-4-4-4-4-4-4-4-4-4-4-4-|7-7-7-7-7-7-7-7-7-7-7-7-7-7-7-7-|
D|--------------------------------|--------------------------------|

e|--------------------------------|--------------------------------|
B|--------------------------------|--------------------------------|
G|--------------------------------|--------------------------------|
D|0-0-0-0-0-0-0-0-0-0-0-0-0-0-0-0-|9-9-9-9-9-9-9-9-9-9-9-9-9-9-9-9-|
A|0-0-0-0-0-0-0-0-0-0-0-0-0-0-0-0-|9-9-9-9-9-9-9-9-9-9-9-9-9-9-9-9-|
D|0-0-0-0-0-0-0-0-0-0-0-0-0-0-0-0-|9-9-9-9-9-9-9-9-9-9-9-9-9-9-9-9-|

e|--------------------------------|--------------------------------|
B|--------------------------------|--------------------------------|
G|--------------------------------|--------------------------------|
D|4-4-4-4-4-4-4-4-4-4-4-4-4-4-4-4-|7-7-7-7-7-7-7-7-7-7-7-7-7-7-7-7-|
A|4-4-4-4-4-4-4-4-4-4-4-4-4-4-4-4-|7-7-7-7-7-7-7-7-7-7-7-7-7-7-7-7-|
D|4-4-4-4-4-4-4-4-4-4-4-4-4-4-4-4-|7-7-7-7-7-7-7-7-7-7-7-7-7-7-7-7-|


e|--------------------------------|--------------------------------|
B|--------------------------------|--------------------------------|
G|--------------------------------|--------------------------------|
D|0-0-0-0-0-0-0-0-0-0-0-0-0-0-0-0-|9-9-9-9-9-9-9-9-9-9-9-9-9-9-9-9-|
A|0-0-0-0-0-0-0-0-0-0-0-0-0-0-0-0-|9-9-9-9-9-9-9-9-9-9-9-9-9-9-9-9-|
D|0-0-0-0-0-0-0-0-0-0-0-0-0-0-0-0-|9-9-9-9-9-9-9-9-9-9-9-9-9-9-9-9-|

e|--------------------------------|--------------------------------|
B|--------------------------------|--------------------------------|
G|6-6-6-6-6-6-6-6-6-6-6-6-6-6-6-6-|9-9-9-9-9-9-9-9-9-9-9-9-9-9-9-9-|
D|6-6-6-6-6-6-6-6-6-6-6-6-6-6-6-6-|9-9-9-9-9-9-9-9-9-9-9-9-9-9-9-9-|
A|4-4-4-4-4-4-4-4-4-4-4-4-4-4-4-4-|7-7-7-7-7-7-7-7-7-7-7-7-7-7-7-7-|
D|--------------------------------|--------------------------------|

Tap to rate this tab
# A B C D E F G H I J K L M N O P Q R S T U V W X Y Z