Song name
# A B C D E F G H I J K L M N O P Q R S T U V W X Y Z

Oomph - Unsere Rettung tab

Unsere Rettung
by Oomph!
Album: Unrein
Tabbed by: Taz Mckell


Intro [Repeat Twice]
E|-------------------|
B|-------------------|
G|-------------------|
D|-2--4-5-7-2--4-4-7-|
A|-2--4-5-7-2--4-5-7-|
E|-0--2-3-5-0--2-3-5-|

Verse 1 [Repeat 4 Times]
E|---------|
B|---------|
G|---------|
D|---------|
A|---------|
E|-0-2-3-5-|

After Verse 1
E|-------------------|
B|-------------------|
G|-------------------|
D|-2--4-5-7-2--4-4-7-|
A|-2--4-5-7-2--4-5-7-|
E|-0--2-3-5-0--2-3-5-|

Verse 2 [Repeat 4 Times]
E|---------|
B|---------|
G|---------|
D|---------|
A|---------|
E|-0-2-3-5-|

Pre-Chorous [Repeat 8 Times]
E|-------------------|
B|-------------------|
G|-------------------|
D|-0-2-0-0-2-0-0-0-0-|
A|-0-2-0-0-2-0-0-0-0-|
E|-0-2-0-0-2-0-0-0-0-|
       ^pm

Chorous [Repeat Twice]
E|-------------------|
B|-------------------|
G|-------------------|
D|-2--4-5-7-2--4-4-7-|
A|-2--4-5-7-2--4-5-7-|
E|-0--2-3-5-0--2-3-5-|

After Chorous [Repeat 8 Times]
E|-------------------|
B|-------------------|
G|-------------------|
D|-0-2-0-0-2-0-0-0-0-|
A|-0-2-0-0-2-0-0-0-0-|
E|-0-2-0-0-2-0-0-0-0-|
       ^pm

Chorous [Repeat Twice]
E|-------------------|
B|-------------------|
G|-------------------|
D|-2--4-5-7-2--4-4-7-|
A|-2--4-5-7-2--4-5-7-|
E|-0--2-3-5-0--2-3-5-|

Verse 3 [Repeat 4 Times]
E|---------|
B|---------|
G|---------|
D|---------|
A|---------|
E|-0-2-3-5-|

Pre-Chorous [Repeat 8 Times]
E|-------------------|
B|-------------------|
G|-------------------|
D|-0-2-0-0-2-0-0-0-0-|
A|-0-2-0-0-2-0-0-0-0-|
E|-0-2-0-0-2-0-0-0-0-|
       ^pm

Chorous [Repeat 6 Times]
E|-------------------|
B|-------------------|
G|-------------------|
D|-2--4-5-7-2--4-4-7-|
A|-2--4-5-7-2--4-5-7-|
E|-0--2-3-5-0--2-3-5-|
Tap to rate this tab
# A B C D E F G H I J K L M N O P Q R S T U V W X Y Z