Song name
# A B C D E F G H I J K L M N O P Q R S T U V W X Y Z

Oomph - Nothing Is Real tab

Pretty easy song, although awsome.

{
UPDATE FRI 11-10-06

I forgot to add the tuning.  It is in dropped D
(DADGBE)

So yeah, its there now. Woo....
}

Main Riff

E|------------------------------------------------------------------------|
B|------------------------------------------------------------------------|
G|------------------------------------------------------------------------|
D|5-7-5-2~~---------------------------------------------------------------|
A|3-5-3-0~~-5--3----------------------------------------------------------|
D|----------5--3----------------------------------------------------------|
 \   x2  / then


Chorus

E|------------------------------------------------------------------------|
B|------------------------------------------------------------------------|
G|------------------------------------------------------------------------|
D|5-7-5-2~~---------------------------------------------------------------|
A|3-5-3-0~~---------------------------------------------------------------|
D|------------------------------------------------------------------------|



Other 

E|------------------------------------------------------------------------|
B|------------------------------------------------------------------------|
G|3~~~~~~5~~~~~~~8~~~~~~--------------------------------------------------|
D|------------------------------------------------------------------------|
A|------------------------------------------------------------------------|
D|------------------------------------------------------------------------|
Tap to rate this tab
# A B C D E F G H I J K L M N O P Q R S T U V W X Y Z