Song name
# A B C D E F G H I J K L M N O P Q R S T U V W X Y Z

Oomph - Ich Will Deine Seele tab

Oomph! - ICH WILL DEINE SEELE
tuning: [B F# D A E B]

INTRO:
B||-------------------------|-------------------------|
F#|-------------------------|-------------------------|
D||-------------------------|-------------------------|
A||--8--8-------------------|--6--6-------------------|
E||--8--8-------------------|--6--6--6-6-6-6-6--4--3--|
B||--6--6--9-9-9-9-9--8--6--|--4--4-------------------|

B||-------------------------|---------------------------|
F#|-------------------------|---------------------------|
D||-------------------------|---------------------------|
A||--4--4-------------------|--5--5---------------------|
E||--4--4--4-4-4-4-4--3--1--|--5--5--4-4-4-4-4--3--1--3-|
B||--2--2-------------------|--3--3---------------------|

VERSE:
B||--------------|
F#|--14--13------|
D||----------10--|
A||--------------|
E||--------------|
B||--------------|

CHORUS:
B||-------------------------|-------------------------|
F#|-------------------------|-------------------------|
D||-------------------------|-------------------------|
A||--8--8-------------------|--6--6-------------------|
E||--8--8-------------------|--6--6--6-6-6-6-6--4--3--|
B||--6--6--9-9-9-9-9--8--6--|--4--4-------------------|

B||-------------------------|---------------------------|
F#|-------------------------|---------------------------|
D||-------------------------|---------------------------|
A||--4--4-------------------|--5--5---------------------|
E||--4--4--4-4-4-4-4--3--1--|--5--5--4-4-4-4-4--3--1--3-|
B||--2--2-------------------|--3--3---------------------|

POST-CHORUS:
B||--------------------------------------------------------------|
F#|--------------------------------------------------------------|
D||--6-6--6-6--6-6-----------------------------------------------|
A||--6-6--6-6--6-6--4-4--4-4-------------------------------------|
E||--4-4--4-4--4-4--4-4--4-4-------------------------------------|
B||-----------------2-2--2-2--2-4-6-6-4-7-7-4-6-6-4-7-7-4-6-6-4--|

B||----------------------------------------------|
F#|----------------------------------------------|
D||--6-6--6-6--6-6-------------------------------|
A||--6-6--6-6--6-6--4-4--4-4---------------------|
E||--4-4--4-4--4-4--4-4--4-4---------------------|
B||-----------------2-2--2-2--2-4-6-6-4-7-7-4-6--|

END:
B||----------------|
F#|----------------|
D||----------------|
A||--8-8--8-8--8-8-|
E||--8-8--8-8--8-8-|
B||--6-6--6-6--6-6-|
Tap to rate this tab
# A B C D E F G H I J K L M N O P Q R S T U V W X Y Z