Song name
# A B C D E F G H I J K L M N O P Q R S T U V W X Y Z

Opca Opasnost - Uzalud Sunce Sja tab

E||---------------------------------------------------------------------||
B||-11-\-9-\-7--9-9-\-7--12-11-12-14--12-11---7-6-7--9--7-6---7-9-\-4---||
G||---------------------------------------------------------------------||
D||--8-\-6-\-4--6-6-\-4---9--8--9-11---9--8---4-3-4--6--4-3---4-6-\-1---||
A||---------------------------------------------------------------------||
E||---------------------------------------------------------------------||


D#5         B5
Budim se iz sna
         F#5
tebe sam sanjao
         C#5
opet sam tebe sanjao
D#5        B5
vani sunce sja
        F#5
a ja bi nestao
        C#5
tako bi rado nestao


        G#5 A#5          B5   C#5  E5
Ovaj je grad    još onaj isti mali grad
        B5
u kojem sva'ko sve
  F#5
o svakom zna
          G#5 A#5        B5   C#5   E5
ja se još trudim  ostat' onaj stari ja
    B5
ali ne ide
         A#5
bez tebe ne ide
D#5          G#5
uzalud sunce sja
         E5          B5
Kad mi u srcu padaju kiše
     F#5              G#5
nebo ne vidim od oblaka
          E5        B5
jer otkad tebe nema više
F#5          G#5    
uzalud sunce sja
           E5        B5
kad je oko mene samo noć
      C#5           C#5            G#5
ti bi mogla donjeti jutro al nećeš doć


E||-------------------------------------------------------||
B||-------------------------------------------------------||
G||-8-\-6-\-4--6-6-\-4--9-8-9-11--9-8---------------------||
D||------------------------------------9/8\9-8--9--11-\---||
A||-6-\-4-\-2--4-4-\-2--7-6-7--9--7-6---------------------||
E||------------------------------------7/6\7-6--7---9-\---||


D#5        B5
Dani prolaze
         F#5
ništa se ne mijenja
         C#5
ništa se ne mijenja
D#5          B5
mislim na tebe
         F#5
to je ko navika
         C#5
prokleta navika


        G#5 A#5          B5   C#5  E5
Ovaj je grad    još onaj isti mali grad
        B5
u kojem sva'ko sve
  F#5
o svakom zna
          G#5 A#5        B5   C#5   E5
ja se još trudim  ostat' onaj stari ja
    B5
ali ne ide
         A#5
bez tebe ne ide
D#5          G#5
uzalud sunce sja
         E5          B5
Kad mi u srcu padaju kiše
     F#5              G#5
nebo ne vidim od oblaka
          E5        B5
jer otkad tebe nema više
F#5          G#5    
uzalud sunce sja
           E5        B5
kad je oko mene samo noć
      C#5           C#5            
ti bi mogla donjeti jutro al nećeš doć


E||---------------------------------------------------------------------------------||
B||---------------------------------------------------------------------------------||
G||------3--4p3---------------4---4/7v-------3--4p3---------------------------------||
D||-8-8---------4----8-8--4h6---6-------8-8---------4--7--6-------------------------||
A||-6-6-----------6--6-6----------------6-6------------5--4-------------------------||
E||----------------------------------------------------5--4-------------------------||


E||---------------------------------------------------------------------------------||
B||---------------------------------------------------------------------------------||
G||------3--4p3---------------4---4/7v-------3--4p3---------------------------------||
D||-8-8---------4----8-8--4h6---6-------8-8---------4--8--8-8-8-8-8-8---------------||
A||-6-6-----------6--6-6----------------6-6------------6--6-6-6-6-6-6---------------||
E||---------------------------------------------------------------------------------||

Solo

E||--------11----------------------------------------------------------------------------------||
B||14---------11-------------------------------------------------------------------------------||
G||13b(15)-------13p11-13b(15)rb13-11--16p15h16--16b(18)rb16-15v--11p10h11-11b(13)rb11-10------||
D||--------------------------------------------------------------------------------------------||
A||--------------------------------------------------------------------------------------------||
E||--------------------------------------------------------------------------------------------||

E||--------14---------14---------14-14b(16)-14b(16)rb14-12-12-11-12-14--12-11------------------||
B||14b(16)----14b(16)----14b(16)----------------------------------------------12---------------||
G||------------------------------------------------------------------------------11-9-8b(9)rb8v||
D||--------------------------------------------------------------------------------------------||
A||--------------------------------------------------------------------------------------------||
E||--------------------------------------------------------------------------------------------||

E||----------------9v---11-11-11---------------------------------------------------------------||
B||-----7v---11v-------------------------------------------------------------------------------||
G||8v------------------------------------------------------------------------------------------||
D||--------------------------------------------------------------------------------------------||
A||--------------------------------------------------------------------------------------------||
E||--------------------------------------------------------------------------------------------||

         E5          B5
Kad mi u srcu padaju kiše
     F#5              G#5
nebo ne vidim od oblaka
          E5        B5
jer otkad tebe nema više
F#5          G#5    
uzalud sunce sja
           E5        B5
kad je oko mene samo noć
      C#5           C#5            G#5  E5 B5
ti bi mogla donjeti jutro al nećeš doć
        F#5         G#5  E5 B5
ti vise nikad nećeš doć'
        F#5    G#5  E5 B5
ti nikad neces doc'
        F#5    G#5  E5 B5 A#5 B5 C#5 D#5
ti nikad neces doc'

E||-----------------------------------------------6---------------------------------------------||
B||-14-12-11b(12)rb11b(12)rb11b(12)rb11v----------7---------------------------------------------||
G||---------------------------------------11-10v--8---------------------------------------------||
D||-----------------------------------------------8---------------------------------------------||
A||-----------------------------------------------6---------------------------------------------||
E||---------------------------------------------------------------------------------------------||
Tap to rate this tab
# A B C D E F G H I J K L M N O P Q R S T U V W X Y Z