Song name
# A B C D E F G H I J K L M N O P Q R S T U V W X Y Z

Open Hand - Time To Talk Acoustic tab

Tabbed by: Chris Mendoza (wkdrbl)
           flip2k2[at]yahoo[dot]com

This is my first tab, so bear with me on this one.
I've listened to the introduction through and through, so
I am sure this is correct. Comments, additions are welcome
and appreciated.

Guitar 1
Intro

e|---------------------|---------------------|
B|5-----5-----5--------|5-----5-----5--------|
D|--4-----4-----4------|--4-----4-----4---4--|
G|----2-----2-----2----|----2-----2-----2----|
A|---------------------|---------------------|
E|---------------------|---------------------|

e|---------------------|---------------------|
B|5-----5-----5--------|5-----5-----5--------|
D|--4-----4-----4------|--4-----4-----4---4--|
G|----2-----2-----2----|----2-----2-----2----|
A|---------------------|---------------------|
E|---------------------|---------------------|

e|---------------------|---------------------|
B|4-----4-----4--------|4-----4-----4--------|
D|--4-----4-----4------|--4-----4-----4---4--|
G|----2-----2-----2----|----2-----2-----2----|
A|---------------------|---------------------|
E|---------------------|---------------------|

e|---------------------|---------------------|
B|5-----5-----5--------|5-----5-----5--------|
D|--4-----4-----4------|--4-----4-----4---4--|
G|----2-----2-----2----|----2-----2-----2----|
A|---------------------|---------------------|
E|---------------------|---------------------| (Repeat x4)

Guitar 2
Intro

e|---------------------|---------------------|
B|--------0------------|--------0------------|
D|----6-----6---6------|----6-----6---6------|
G|--6---6-----6--------|--6---6-----6--------|
A|4--------------------|4--------------------|
E|---------------------|---------------------|

e|---------------------|---------------------|
B|--------0------------|--------0------------|
D|----6-----6---6------|----6-----6---6------|
G|--6---6-----6--------|--6---6-----6--------|
A|0--------------------|0--------------------|
E|---------------------|---------------------| (Repeat x8)
Tap to rate this tab
 
# A B C D E F G H I J K L M N O P Q R S T U V W X Y Z