Song name
# A B C D E F G H I J K L M N O P Q R S T U V W X Y Z

Open The Skies - He Spoke Of Success tab

Open The Skies - He Spoke Of Success

This Is The First Tab I Have Ever Done By Ear So It Might Be A Bit Out


E|---------------------------------------------------------|
B|---------------------------------------------------------|
G|---------------------------------------------------------|
D|1-1-3-3--1-1--6-4-3------5-5-5-57-0-0--10-8-7------------|
A|1-1-----------------5-3--5-5------0-0--------9-7---------|
D|1-1----------------------5-5------0-0--------------------|

E|---------------------------------------------------------|
B|---------------------------------------------------------|
G|---------------------------------------------------------|
D|1-1-3-3--1-1--6-4-3------5-5-5-5-7--0-0-9------8---------|
A|1-1-----------------5-3--5-5--------0-0--10-11--9-10-----|
D|1-1----------------------5-5--------0-0------------------|


http://www.opentheskies.com/
Tap to rate this tab
# A B C D E F G H I J K L M N O P Q R S T U V W X Y Z