Song name
# A B C D E F G H I J K L M N O P Q R S T U V W X Y Z

Open The Skies - Yours Faithfully tab

Standard tuning

verse 1, repeat 3 times (0:00-0:35) :

e|---------------------------------------|
B|---------------------------------------|
G|---4-----4----5-----5-----4------------|
D|-----7-----7----7-----7----------------|
A|-0-----0-----0----0-----0--------------|
E|---------------------------------------|


e|---------------------------------------|
B|---------------------------------------|
G|-0-----2----0----5----4----------------|
D|---0-----0----0----0----0--------------|
A|---------------------------------------|
E|-----3-----3---3----3----3-------------|

power chords: C x4/ D x4/ E x4/ F x1 \ D x5\ C x2


___________________________________________________

chorus 1, repeat 4 times (00:35-1.06):

power chords: C x4 \ B x4 \ A x4 \ E x4 


e|---------------------------------------|
B|---------------------------------------|
G|---------------------------------------|
D|-----2/3\2-----------------------------|
A|-3-5-----------------------------------|
E|---------------------------------------|

after repetition:
power chords: B / C / D / E \ C / D / E 

___________________________________________________

verse 2, repeat 2 times (1:06-1:31):

e|---------------------------------------|
B|---------------------------------------|
G|---4-----4----5-----5-----4------------|
D|-----7-----7----7-----7----------------|
A|-0-----0-----0----0-----0--------------|
E|---------------------------------------|


e|---------------------------------------|
B|---------------------------------------|
G|-0-----2----0----5----4----------------|
D|---0-----0----0----0----0--------------|
A|---------------------------------------|
E|-----3-----3---3----3----3-------------|

power chords: C x4/ D x4/ E x4/ F x1 \ D x4/ E x4/ F x1


___________________________________________________

chours 2, (1.31-2:00) 

power chords: C x4 \ B x1 \ A x4, E x4


e|---------------------------------------|
B|---------------------------------------|
G|---------------------------------------|
D|-----0h2p0-----------------------------|
A|-2h3-----------------------------------|
E|---------------------------------------|

C C, B B, C C, B B B B
___________________________________________________

solo & bridge, repeat 2 times (2:00-2:55):
chords: C, G, A, A


e|-------------------------------------------------|
B|-------------------------------------------------|
G|--7----7----9------9-----7-----7------9-----9----|
D|---0----0-----0------0----0------0------0-----0--|
A|-------------------------------------------------|
E|8----8----8-----8-----8----8-------8------8-----8|


e|-------------------------------------------------|
B|-------------------------------------------------|
G|--7----7----9------9-----7-----7------9-----9----|
D|---0----0-----0------0----0------0------0-----0--|
A|-------------------------------------------------|
E|8----8----8-----8-----8----8-------8------8-----8|


e|---------------------------------------|
B|-9-9-9-9-10-10-9-9-4h5-7-9-7-5-4h5-----|
G|---------------------------------------|
D|---------------------------------------|
A|---------------------------------------|
E|---------------------------------------|

e|-------------------------------------------------|
B|-------------------------------------------------|
G|--7----7----9------9-----7-----7------9-----9----|
D|---0----0-----0------0----0------0------0-----0--|
A|-------------------------------------------------|
E|8----8----8-----8-----8----8-------8------8-----8|


e|-------------------------------------------------|
B|-------------------------------------------------|
G|--7----7----9------9-----7-----7------9-----9----|
D|---0----0-----0------0----0------0------0-----0--|
A|-------------------------------------------------|
E|8----8----8-----8-----8----8-------8------8-----8|


e|---------------------------------------|
B|-9-9-9-9-10-10-9-9-4h5-7-9-7-5-4h5-----|
G|---------------------------------------|
D|---------------------------------------|
A|---------------------------------------|
E|---------------------------------------|

e|-------------------------------------------------|
B|-------------------------------------------------|
G|--7----7----9------9-----7-----7------9-----9----|
D|---0----0-----0------0----0------0------0-----0--|
A|-------------------------------------------------|
E|8----8----8-----8-----8----8-------8------8-----8|


e|-------------------------------------------------|
B|-------------------------------------------------|
G|--7----7----9------9-----7-----7------9-----9----|
D|---0----0-----0------0----0------0------0-----0--|
A|-------------------------------------------------|
E|8----8----8-----8-----8----8-------8------8-----8|


e|---------------------------------------|
B|-9-9-9-9-10-10-9-9-4h5-7-9-7-5-4h5-----|
G|---------------------------------------|
D|---------------------------------------|
A|---------------------------------------|
E|---------------------------------------|

e|---------------------------------------|
B|---------------------------------------|
G|-7h9--7h9---7h9--7h9----7h9-7h9--------|
D|---------------------------------------|
A|---------------------------------------|
E|----------3----------3----------3------|

___________________________________________________
last chours:

power chords: C x4 \ B x1 \ A x4, E x4


e|---------------------------------------|
B|---------------------------------------|
G|---------------------------------------|
D|-----0h2p0-----------------------------|
A|-2h3-----------------------------------|
E|---------------------------------------|

___________________________________________________
Outtro:

e|----------------------------------------|
B|----------------------------------------|
G|---------5------------------------------|
D|-0p2h0---5------------------------------|
A|-------3-3------------------------------|
E|---------3------------------------------|
Tap to rate this tab
 
# A B C D E F G H I J K L M N O P Q R S T U V W X Y Z