Song name
# A B C D E F G H I J K L M N O P Q R S T U V W X Y Z

Operahouse - Born A Boy tab

this was rather difficult so enjoy

intro:

e|--------------3-3---------------------|
B|-6-6-6-6--------0------------6-6-6-6--|
G|-7-7-7-7--------0------------7-7-7-7--|
D|-8-8-8-8--------0-0-4-7--5-8-8-8-8-8--|
A|-8-8-8-8-1/3-2--2-------6----8-8-8-8--|
E|-------------3--3---------------------|


verse:

e|------------------------------------------|
B|-11--11-8--8-6--11-11-11-11-11-11---------|
G|-12--12-8--8-7--12-12-12-12-12-12---------|
D|-12--12-8--8-7--12-12-12-12-12-12---------|
A|-10--10-6--6-5--10-10-10-10-10-10---------|
E|------------------------------------------|


chorus:

e|------------------------------------------------|
B|-8-8-8-8-6-6-6-6-11-11-11-11-13-13-13-13--------|
G|-8-8-8-8-7-7-7-7-12-12-12-12-14-14-14-14--------|
D|-8-8-8-8-7-7-7-7-12-12-12-12-15-15-15-15--------|
A|-6-6-6-6-5-5-5-5-10-10-10-10-15-15-15-15--------|
E|------------------------------------------------|  X2

solo:

e|-22-20-22-----18-15-18------22-20-22-----18-15-18-------|
B|----------20~----------15~-----------20~----------15----|
G|--------------------------------------------------------|
D|--------------------------------------------------------|
A|--------------------------------------------------------|
E|--------------------------------------------------------|

e|--------------------------------------------------------|
B|--------------------------------------------------------|
G|-19-17-15---------------12--12--12----------15/12-8/12--|
D|----------17~--12-12-15---15--15---12-12-15-15/12-8/12--|
A|--------------------------------------------------------|
E|--------------------------------------------------------|


e|--------------------------------------------------------|
B|--------------------------------------------------------|
G|----------12---12---------------------------------------|
D|-12-12-15---15---15-12----------------------------------|
A|---------------------------15-15------------------------|
E|-----------------------13~-13-13------------------------|

Bridge:

e|--------------------------------------------------------|
B|--------------------------------------------------------|
G|----------14-14-14----------------12-12-12-12-12--------|
D|----------15-15-15-12-12-12-12-12-13-13-13-13-13--------|
A|-10-10-10-x--x--x--x--x--x--x--x--13-13-13-13-13--------|
E|----------13-13-13-10-10-10-10-10-11-11-11-11-11--------| X2

then chorus again thers also a little guitar fill befor it wich is the same as the first 
in the solo

hope this has been of help


www.operahousehq.com
http://www.myspace.com/operahousehq
Tap to rate this tab
 
# A B C D E F G H I J K L M N O P Q R S T U V W X Y Z