Song name
# A B C D E F G H I J K L M N O P Q R S T U V W X Y Z

Operation Ivy - Caution tab

~*Caution By Operation Ivy*~

Tabbed by Take_Warning

Great song, pretty easy, if it needs corrections send them over to lowzack@gmail.com

Standard Tuning

|-----------------|
|-----------------|
|-----------------|
|-----------------|
|--5--------------|
|--3--------------|
    Near the end of this chord, Tim plays with his volume knob

Chorus 1:
|----------|----------------|
|----------|------2---------|
|----------|--3-5---5-3---3-|
|----5-----|------------5---|
|-3--3--5--|----------------|
|-1-----3--|----------------|

Verse 1:
|-------|
|-------|
|-------|
|-----5-|
|-5-3-3-|
|-3-1---|

Fill 1:
|---------------------|
|---------------------|
|----3-5-3------------|
|--5-------5-3-5-3-5-3|
|---------------------|
|---------------------|

Chorus 2:
|----------|------------------|
|----------|------------------|
|----------|--3---3--5b-5br-3-|
|----5-----|----5------------5|
|-3--3--5--|------------------|
|-1-----3--|------------------|


Verse 2:
|-------|
|-------|
|-------|
|-----5-|
|-5-3-3-|
|-3-1---|

Fill 2:
|------------------|
|------------------|
|--3---3--5b-5br-3-|
|----5------------5|
|------------------|
|------------------|

Chorus 3:
|----------|----------------|
|----------|------2---------|
|----------|--3-5---5-3---3-|
|----5-----|------------5---|
|-3--3--5--|----------------|
|-1-----3--|----------------|

Bridge 1:
|-------------------|---------------|
|-------------------|---------------|
|-------------------|---------------|
|-3-3-3-------------|-5-5-5---------|
|-1-1-1-6-3-3-3-3-3-|-3-3-3-6-3-3-3-|
|-------4-1-1-1-1-1-|-------4-1-1-1-| x2

(bass fill)

Chorus 4:
|----------|-x-x-x-x-|
|----------|-x-x-x-x-|
|----------|-x-x-x-x-| 
|----5-----|---------|
|-3--3--5--|---------|
|-1-----3--|---------|

Outro:
|--------------------------------|	|----x-x-|
|--------------------------------|	|----x-x-|
|--------------------------------|	|----x-x-|
|----------------5-5-5-5-5-5-5---|	|--------|
|-3-3-3-3-3-3-3--3-3-3-3-3-3-3---|	|-5------|
|-1-1-1-1-1-1-1------------------| x2|-3------|
    PM:--------|   PM---------|


And that's it, have fun!
Tap to rate this tab
# A B C D E F G H I J K L M N O P Q R S T U V W X Y Z